busca

Fogo Consumidor

Fernandinho

Tom: D
[Solo]  A9  A4  A  A9

E|--9h10-9-7----------------|
B|-------------10-----------|
G|-----------9----7-6-------|
D|--------------------7-----| (4x)
A|--------------------------|
E|--------------------------|

 A9
Fogo consumidor
 A9
Venha arder em nós
            Bm7
Aquecer a chama
                F#m
Que um dia queimou por Ti

 A9
Homens se desviaram
  A9
Profetas se venderam
Bm7              F#m
  Mas existem aqueles que não se dobraram
A9                 E
  De ante outros deuses
Bm7              F#m
  Mas existem aqueles que não se dobraram
A9                 E      D
  De ante outros deuses

 A9
Deus está levantando um novo povo
 E
Deus está sacudindo toda terra
 Bm7                           D
Deus está separando seus profetas            
A9
Um novo dia amanhecer
G/B
Uma nova história se cumprir
Bm7                 D9
O choro já durou a noite
                   A9
É chegado o amanhecer

[Solo]  A9  A4  A  A9

E|--9h10-9-7----------------|
B|-------------10-----------|
G|-----------9----7-6-------|
D|--------------------7-----| (4x)
A|--------------------------|
E|--------------------------|

 A9
Fogo consumidor
 A9
Venha arder em nós
            Bm7
Aquecer a chama
                F#m
Que um dia queimou por Ti

 A9
Homens se desviaram
  A9
Profetas se venderam
Bm7              F#m
  Mas existem aqueles que não se dobraram
A9                 E
  De ante outros deuses
Bm7              F#m
  Mas existem aqueles que não se dobraram
A9                 E      D
  De ante outros deuses

 A9
Deus está levantando um novo povo
 E
Deus está sacudindo toda terra
 Bm7                           D
Deus está separando seus profetas            
A9
Um novo dia amanhecer
G/B
Uma nova história se cumprir
Bm7                 D9
O choro já durou a noite
                   A9
É chegado o amanhecer

                   A9    E
É chegado o amanhecer
                   Bm7   D
É chegado o amanhecer
                   A9    G/B
É chegado o amanhecer
                   Bm7   D9
É chegado o amanhecer

[Solo]  A9  A4  A  A9

E|--9h10-9-7----------------|
B|-------------10-----------|
G|-----------9----7-6-------|
D|--------------------7-----| (4x)
A|--------------------------|
E|--------------------------|

Clipes