busca

Grande É o Senhor

Fernandinho

Grande é o Senhor (Tablatura de baixo)

Introdução

G|----7/9--5--5-4--------------------------------------|
D|----------------7-5--5-4-----------------------------|
A|-------------------------7-5-------------------------|
E|-----------------------------------------------------|

G|-----------------------------------------------------|
D|-----------------------------------------------------|
A|----5/7---3--3-2----------3-5------------------------|
E|--------0--------5-3--5-7----------------------------|

No caso de baixo com 5 cordas:

G|-----------------------------------------------------|
D|-----------------------------------------------------|
A|----5/7---3--3-2-------------------------------------|
E|--------0--------5-3--3-2----------------------------|
B|--------------------------5-3------------------------|

Final

G|-----------------------------------------------------|
D|----------------5--5-7-------------5-7-5-4-----------|
A|-------5--5-7-------------5--5-7---------------------|
E|----0---------0--------0--------0--------------------|

G|-----------------------------------------------------|
D|----------------5--5-7-------------5-7-5-4-----------|
A|-------5--5-7-------------5--5-7-----------5--7------|
E|----0---------0--------0--------0--------------------|

Clipes