busca

Há Um Rio

Fernandinho

Tom: C
Intro: Am F C G
E|------------------------|------------------------|
B|--------5------6-------6|-5-------5-3----------3-|
G|-----5------------5-----|----5----------4--------|   
D|--7-------7----------7--|-------5-----------5----|  
A|------------------------|------------------------|
E|------------------------|------------------------|

       A5           F5           E5         A5
E|------------------------------------------------|
B|--13--10-12-13-10-----12-13-9---12-13-10--------|
G|------------------10----------9-----------------|    (2x)
D|------------------------------------------------|
A|------------------------------------------------|
E|------------------------------------------------|

Solo:

(2ª vez do refrão)
E|---------8------|-----------------|----------------|
B|----8-10----10~-|10-13-12-8\10-8~-|----------------|
G|-7-9------------|-----------------|-7-5-7--9-5\12--|
D|----------------|-----------------|----------------|
A|----------------|-----------------|----------------|
E|----------------|-----------------|----------------|
(refrão 3ª vez)
E|-----------------|------------------|
B|-----------------|------------------|
G|---------5-6-7-8-|---------5-4------|
D|--7-5-7--5-6-7-8-|--7-5-7--5-4--5-7-|
A|--7-5-7--3-4-5-6-|--7-5-7--3-2--5-7-|
E|--5-3-5----------|--5-3-5-------3-5-|
(último refrão)
E|-12-8----8-12-8---8-13-8----8-13-8----8-|-15-12---12-15-12--12-10-7---7-10---7-|
B|------10-------10--------10--------10---|-------13--------13--------8------8---|
G|----------------------------------------|--------------------------------------|
D|----------------------------------------|--------------------------------------|
A|----------------------------------------|--------------------------------------|
E|----------------------------------------|--------------------------------------|

Am       F          C        G
   Há um rio cujas águas são limpas.
Am       F          C         G
   Há um rio cujas fontes não cessam.
Am       F        C        G       Am F C G
   Há um rio que corre do Trono de Deus.

Am       F          C           G
   Há um rio que desceu de Sua Glória.
Am       F          C        G
   Há um rio que morreu numa cruz.

Refrão:
                 Am F C G      Am F C G
   Eu vou mergulhar nos Teus rios.
                Am F C G      Am F C G
   Eu vou mergulhar nas Suas fontes.

    Am       F        C          G          Am     F        C  G
Me limpa, me sara, me cura, transforma, restaura o meu coraçao
    Am       F        C        G           Am      F        C  G
Me limpa, me sara, me cura, restaura, transforma o meu coraçao
   Am        F        C        G           Am      F        C  G
Me limpa, me sara, me cura, restarua, transforma o meu coraçao
    Am       F        C          G          Am     F        C  G
Me limpa, me sara, me cura, transforma, restaura o meu coraçao

Clipes