busca

Há Um Rio

Fernandinho

Intro:

Riff de Guitar 4x

O baixo entra depois

G ------------------|
D ------------------|
A ------------------|
E --5-5----3-5-3-5--|

Na parte do solo da intro

G --------------|
D --------------|
A --------3-----|
E --5--1-----3--| 2x

Verso:

Quando começar a letra os instrumentos secam, só fica o teclado e bateria.
O baixo só volta com a guitar no trecho: 'Há um rio que corre no trono de Deus'

G ----------------------|
D ----------------------|
A ------------3-3-------|
E --5-5--1-1-------3-3--|

'Há um rio que desceu de sua glória...'

G -----------------------------|
D -----------------------------|
A -----------------------------|
E --5-3-5----3-5-3-5----5-3-5--|

G ----------------------|
D ----------------------|
A ------------3-3-------|
E --5-5--1-1-------3-3--|

Refrão:

'Eu vou mergulhar...'

G -----------------------------------|
D -----------------------------------|
A ------------------3-3-3-3----------|
E --5-5-5-5-1-1-1-1---------3-3-3-3--| 8x

Solo:

No inicio do solo o baixo para, e só volta na segunda parte do: 'Me limpa, me sara, me cura, restaura, transforma...'

G ----------------------|
D ----------------------|
A ------------3-3-------|
E --5-5--1-1-------3-3--| 4x

O baixo para de novo quando o refrão volta é só fica a bateria, na segunda parte do refrão os instrumentos voltam.

G ----------------------------------|
D ----------------------------------|
A ---------3-5-6-7---------3-2------|
E --5-3-5-----------5-3-5-------3-5-|  2x

depois disso repete tudo até acabar.

Clipes