busca

Infinitamente Mais

Fernandinho

Tom: G#
Intro:

E|--13~~-11~-13\15~~-13~~--13\16~~---13~~---|
B|------------------------------------------|  
G|------------------------------------------|  
D|------------------------------------------|  
A|------------------------------------------|  
E|------------------------------------------|  

Fm                 C#9
Minhas lágrimas enchem os seus odres
Fm                C#9
Meu clamor está escrito no Seu livro

F5  C#5  (3x)

E|--------------------------------------------------|  
B|---------------------------------8-8--8--8-8--8/--|  
G|---10-x-8-10----10-x-8-10/-------8-8--8--8-8--8/--| (3x)
D|---10-x-8-10----10-x-8-10/-------6-6--6--6-6--6/--|  
A|-x--8-x-6--8--x--8-x-6--8/------------------------|  
E|--------------------------------------------------|  

   *  *    *      *  *  *  *    *      *  *
E|--------------------------------------------|  
B|-------9----8h9-------------9----8h9--------|  
G|-10-10---10-----10-10-10-10---10-----10-10--|  
D|--------------------------------------------|  
A|--------------------------------------------|  
E|--------------------------------------------| 
 
   *  *  *  *  *  *  *  *
E|--------------------------------------------------|  
B|--------------------------------------------------|  
G|-10-10-10-10-10-10-10-10-10-10-10-10-10-10-10-10--| (2x)
D|--------------------------------------------------|  
A|--------------------------------------------------|  
E|--------------------------------------------------|

Verso 1: (2x)
F5               C#5
Minhas lágrimas enchem os Seus odres
F5                 C#5
Meu clamor está escrito no seu livro  

E|--------------------------------------------------------------|  
B|--------------------------------------------------------------|  
G|-6-6p5-6-6p5-6-6p5-6h8p6p5----6-6p5-6-6p5-6-6p5-6h8p6p5-6--8--|  
D|---------------------------3----------------------------6--8--|  
A|---------------------------3----------------------------4--6--|  
E|---------------------------1----------------------------------|

Verso 2:
Bb5                 F5
As muitas águas não podem afogar, não
Bb5                  C#5         D#5
Estou esperando Tua luz em meio a noite  

E|------------------------------------------|  
B|---------------------------13~~16~~13~14~-|  
G|-6-6p5-6-6p5-6-6p5-6h8p6p5----------------|  
D|------------------------------------------|  
A|------------------------------------------|  
E|------------------------------------------|  

Mas eu sei em quem tenho crido
                      
Também sei que é Poderoso pra fazer
              G#5                    D#5
Infinitamente mais, mais, mais, mais

Refrão:
       G#5
Mas eu sei em quem tenho crido
      D#5                     F5
Também sei que é Poderoso pra fazer            (2x)
     C#5      G#5                    D#5
Infinitamente mais, mais, mais, mais

E|--------------------------------------------------|  
B|---------------------------------8-8--8--8-8--8/--|  
G|---10-x-8-10----10-x-8-10/-------8-8--8--8-8--8/--| (2x) 
D|---10-x-8-10----10-x-8-10/-------6-6--6--6-6--6/--|  
A|-x--8-x-6--8--x--8-x-6--8/------------------------|  
E|--------------------------------------------------|   

F5 C#5  (2x)

   *  *    *      *  *  *  *    *      *  *
E|--------------------------------------------|  
B|-------9----8h9-------------9----8h9--------|  
G|-10-10---10-----10-10-10-10---10-----10-10--|  
D|--------------------------------------------|  
A|--------------------------------------------|  
E|--------------------------------------------| 
 
   *  *  *  *  *  *  *  *
E|--------------------------------------------------|  
B|--------------------------------------------------|  
G|-10-10-10-10-10-10-10-10-10-10-10-10-10-10-10-10--| (2x)
D|--------------------------------------------------|  
A|--------------------------------------------------|  
E|--------------------------------------------------|

Verso 1: (2x)
F5               C#5
Minhas lágrimas enchem os Seus odres
F5                 C#5
Meu clamor está escrito no seu livro

E|--------------------------------------------------------------|  
B|--------------------------------------------------------------|  
G|-6-6p5-6-6p5-6-6p5-6h8p6p5----6-6p5-6-6p5-6-6p5-6h8p6p5-6--8--|  
D|---------------------------3----------------------------6--8--|  
A|---------------------------3----------------------------4--6--|  
E|---------------------------1----------------------------------|

Verso 2:
Bb5                 F5
As muitas águas não podem afogar, não
Bb5                  C#5         D#5
Estou esperando Tua luz em meio a noite  

E|----------------------------|  
B|----------------------------|  
G|-6-6p5-6-6p5-6-6p5-6h8p6p5--|  
D|----------------------------|  
A|----------------------------|  
E|----------------------------|

Refrão: 
       G#5
Mas eu sei em quem tenho crido
      D#5                      F5
Também sei que é Poderoso pra fazer           (2x)
     C#5      G#5                     D#5
Infinitamente mais, mais, mais, mais

       G#5
Mas eu sei em quem tenho crido
Também sei que é Poderoso pra fazer
Infinitamente mais, mais, mais, mais
       G#5
Mas eu sei em quem tenho crido
      D#5                      F5
Também sei que é Poderoso pra fazer        
     C#5      G#5                     D#5
Infinitamente mais, mais, mais, mais

Final:  F5 C#5 G#5

Clipes