busca

Infinitamente Mais

Fernandinho

Intro


G|-----------------------------------------------------------------------|
D|-------10---8------------8---10-------10---8---------------------------|     X2
A|---8------------11---8------------8------------11----------------------|
E|----------------------------------------------------888---888----------|

Minhas Lágrimas

G|-----------------------------------------------------------------------|
D|-----------------------------------------------------------------------|
A|----------------6-6---6-6----------------------------------------------|
E|--1-1--1-1-------------------------------------------------------------|

As Muitas águas

G|-----------------------------------------------------------------------|
D|-----------------------------------------------------------------------|
A|----1-1--1--1--4-------------------------------------------------------|
E|-----------------1-1-1-1-----------------------------------------------|

Estou esperando sua luz em meio a noite!

G|-----------------------------------------------------------------------|
D|------------------444444-----------------------------------------------|
A|-------111111------------6666666---------------------------------------|
E|-----------------------------------------------------------------------|

Antes do refrão!

G|-----------------------------------------------------------------------|
D|-----------------------------------------------------------------------|
A|---------------6--------------------------------------------------------|
E|-----66h4-4hg-----------------------------------------------------------|

Mas eu sei que tenho crido!

G|---------------------------------------------------------------------------------------|
D|---------------------------------------------------------------------------------------|
A|-----------------6-6---------66666666--888888888----4444444444h6-----------------------|
E|-----4~-----4444-----4444444---------------------------------------4444444-------------|

Final!

G|-----------------------------------------------------------------------|
D|-----------------------------------------------------------------------|
A|------------------44444H6-----------------------------------------------------|
E|-------1111----------------4~~------------------------------------------------|

Clipes