busca

O Hino

Fernandinho

Primeira estrofe:

G|----------------------------|
D|----------------------------| 2x
A|--5-5--1-1-------3-3--------|
E|------------1-1-------------|

Intro:

G|----------------------------|
D|----------------------------| 2x
A|--5-5--1-1-------3-3--------|
E|------------1-1-------------|

G|----------------------------|
D|----------------------------| 2x
A|--5-5--1-1-------3-3--------|
E|------------1-1-------------|

G|----------------------------|
D|----------------------------| 1x
A|--5-5--1-1-------3-3--------|
E|------------1-1-------------|

G|---------------------------------------------------|
D|---------------------------------------------------| 1x
A|--5-5--1-1-----------------------------------------|
E|------------1-1-1-1-1-1-1-1s--8-8-8-8-8-8-8-8------|

Refrão:

                Dm 
G|-------6----5--6------------------|
D|--------6--------6----------------| 
A|--5--5----------------------------|
E|----------------------------------|

                Bb
G|-------3----2--3------------------|
D|--------3--------3----------------| 
A|--1--1----------------------------|
E|----------------------------------|

                F
G|----------------------------------|
D|--------3----2--3-----------------| 
A|---------3--------3---------------|
E|--1--1----------------------------|

                C
G|--------5---4--5------------------|
D|---------5-------5----------------| 
A|--3--3----------------------------|
E|----------------------------------|

Clipes