busca

Sara-me

Fernandinho

Tom: C
          Intro/solo:
        Guitar                  Todos           
Intr:  Am  F  Am  G :  C  F  Am  G  :  C  F  Am  G

C                 F      Am               G 
 
e|----------------------5--------------------3-- 
B|---3----3----3----5/6---6----3---3---3-----3-- 
G|-----5----5----5---------------5---5---5---4-- 
D|------5-----5---5---------------5---5---5--5-- 
A|-3-------------------------3---------------5-- 
E|-------------------------------------------3-- 
 
e|----------------------------------------- 
B|----------------------------------------- 
G|--7/9--7--7/9--7--9/10--9--9/10--9--7/9-- 
D|----------------------------------------- 
A|----------------------------------------- 
E|----------------------------------------- 
                                            (2x) 
e|----------------------------------------- 
B|----------------------------------------- 
G|-7--7/9--7--7---------------------------- 
D|----------------------------------------- 
A|----------------------------------------- 
E|----------------------------------------- 
 
  C                 F            C    F
O mesmo Jesus que andou em Jerusalém 
  C                 F           C   G
O mesmo Jesus que andou pela Judéia
  C                 F         Am   G
O mesmo Jesus que andou em Jericó

    Dm               Am         G                      
É o mesmo Jesus que está aqui agora
    Dm               Am         G          
É o mesmo Jesus que está aqui agora 

     C   F      Am  G
Sará-me,   curá-me
  Dm                     Am
E basta uma palavra que saia
                  G
Do teu trono de amor

           C   F                    Am   G                         
Filho de Davi,   tenha compaixão de mim
 Dm            Am                   G         
Assim como Bartimeu, Eu quero ser curado  

  C    F                 Am    G  
Jesus,   quero ouvir tua voz
Dm               Am                 G         
teu leito e anda tua fé te salvou 
Dm               Am       G         C         
teu leito e anda tua fé te salvou

Intr:  C  F  Am  G  (2X) 

Voltar: O mesmo Jesus... 

Ministração:  Am  Em  F  G 

E|---------------------------------------------- 
B|-10~--10-12-13---6~-6-8-10-12---10-8h10~------ 
G|-----9--------9~---5--------------------------  (Repete varias veses) 
D|---------------------------------------------- 
A|---------------------------------------------- 
E|----------------------------------------------

Clipes