busca

Sede de Justiça

Fernandinho

Tom: G
Riff:
E|----------------------------------------------------------|
B|----------------------------------------------------------|
G|--h7-----h5--h5-------------------------------------------|
D|------------------h5---h5---------------------------------|
A|-----------------------------h5---------------------------|
E|----------------------------------------------------------|

E|--8h10h12t17----------------------------------------------|
B|----------------------------------------------------------|
G|----------------------------------------------------------|
D|----------------------------------------------------------|
A|----------------------------------------------------------|
E|----------------------------------------------------------|

Intro 4x: D C
E|--------3---2-------2--------------0-------0-------0------|
B|-1h3------------3-------3----0h1-------1-------1----------|
G|----------------------------------------------------------|
D|----------------------------------------------------------|
A|----------------------------------------------------------|
E|----------------------------------------------------------|

D                G
Não posso ficar calado
      Bm                        A
Não posso ficar de mãos atadas
      Bm                   G
Com tantos votos comprados
          D               A
Cartas marcadas, profetas calados.
E|----------------------------------------------------------|
B|---8h10---8------8h10-----8-------------------------------|
G|--------------7---------------7---7h9---------------------|
D|----------------------------------------------------------|
A|----------------------------------------------------------|
E|----------------------------------------------------------|

     Em
As portas do inferno
     G                       A
Não vão prevalecer contra a igreja
Em                         G      A
Bem aventurados os que têm sede de justiça

        Bm
Eu tenho sede de justiça
G
Sede de justiça
   D                A
Sacia minha sede Senhor!

(Repete tudo uma vez)

Bm
na na na nananara
D
na na na nananara
E
na na na nananara oh! Oh!

Bm
na na na nananara
D
na na na nananara
E
na na na nananara  ôôôô...

Ministração: Em Bm A
E|----------------------------------------------------------|
B|-7h8--7--5----------7--8--9--8/10--8--7--5----------------|
G|-------------7--9-----------------------------------------|
D|----------------------------------------------------------|
A|----------------------------------------------------------|
E|----------------------------------------------------------|

Final 4x: D C

Clipes