busca

Sede de Justiça

Fernandinho

Intro:
G|------------------------------------------|
D|--------------12-12-12-12-12-12-12-12-12--|
A|5-5-5-5-5-5-5-----------------------------| (4x)
E|------------------------------------------|

    D             G
Não posso ficar calado
    B                    A
Não posso ficar de mãos atadas

   B                        G                      D                    A       
G|--------------------------12-12-12-11-11-11-9-9--11-11-11-9-9-9-----------------------------|
D|-9-9-9-11-11-11-12-12-12----------------------------------------12-12-----------------------|
A|----------------------------------------------------------------------12-12-12-11-11-11-9-9-|
E|--------------------------------------------------------------------------------------------|
Com tantos votos comprados, cartas marcadas, profetas calados

   E                     G                        A                   
As portas do inferno não vão prevalecer contra a Igreja
E                          G          A
Bem aventurado os que tem sede de justiça


Refrão:
  B                G  
G|-----2--------2-----------------|
D|---4---4----4--------5-------5--|
A|-2-------2h--------5---5---5----|
E|-----------------3-------3h-----|
B|--------------------------------|
Eu tenho sede de justiça, sede de justiça
D                    A
Sacia minha sede, Senhor
(1ª intro (2x) | 2ª na na na...)

B
Na, na, na, na, na, na
D
Na, na, na, na, na, na
E
Na, na, na, na, na, na ohh...

Clipes