busca

Sede de Justiça

Fernandinho

Tom: G
(intro) D

(guitarra)                                      (violão:)
E|--------15-14---------------------------------|-12h11-|  Am as vezes!
B|-----15-------15/14/13/12/11/10/09/08/07/06...|-------|
G|-7~7~-----------------------------------------|-------|
D|-7~7~-----------------------------------------|-------|
A|-5~5~-----------------------------------------|-------|
E|----------------------------------------------|-------|

 (entrada) ( D C ) (4x)
E|------3-2--2---0-0--0-0-| (riff 1)
B|-1h3-----3---3-----3----|   (4x)

D                G
Não posso ficar calado
      Bm                        A
Não posso ficar de mãos atadas
      Bm                   G
Com tantos votos comprados
          D               A
Cartas marcadas, profetas calados.

       Em
As portas do inferno                       (gutarra) e|-5-3----5-3----|                             G                        A                      B|------3------3/5-|
Não vão prevalecer contra a igreja
Em                         G      A
Bem aventurados os que têm sede de justiça

(4x)
        Bm
Eu tenho sede de justiça
G
Sede de justiça
   D          A       E     (quando for para não)
Sacia minha sede Senhor!

(repete tudo)

Bm
Não não Não não Não não
D
Não não Não não Não não
Em
Não não Não não Não não oh! Oh!

Bm
Não não Não não Não não
D
Não não Não não Não não
Em
Não não Não não Não não ôôôô...

( G F#m Em )

(guitarra solo)
E|------------------------2-3-3/5-3-2-0-3-2-0-3--2-0-|
B|-8-7-5-7/8-7-5------3-5----------------------------|
G|-----------------2---------------------------------|

(refrão)

(final) D C 4x guitarra no RIFF 1

Clipes

Cifra Club Pro

Aproveite o Cifra Club com benefícios exclusivos e sem anúncios
7 dias grátis
Cifra Club Pro
Aproveite o Cifra Club com benefícios exclusivos e sem anúncios
7 dias grátis