busca

Seu Sangue

Fernandinho

Tom: D
[Intro] F#m

E|-12----------------12---------------------|
B|----10-12------10-----10-12------10-------|
G|----------9-11--------------9-11----------|(3x)
D|------------------------------------------|
A|------------------------------------------|
E|------------------------------------------|

[Primeira Parte]

A9           E
  Seu sangue, Sua cruz
F#m              D
    Me levam de volta pra Deus
A9           E
   Sua morte,  Sua vida
F#m           D  
    As trevas,  ele já venceu

E5             D5        E5            D5
  Seu amor me conquistou,  sou eterno devedor

[Segunda Parte]

G              D
  O véu se rasgou
                    F#m
Sua luz em mim brilhou
                  E                  
Sua glória me cobriu 
                      Bm  E
Mais que vencedor eu sou
                      Bm  E
Mais que vencedor eu sou

[Refrão]

A9                            E 
  Sei que na sala do trono está
                 F#m
Eu quero ir pra lá
             D9 
Pelo novo e vivo caminho

A9                            E 
  Sei que na sala do trono está
                 F#m
Eu quero ir pra lá
             D9 
Pelo novo e vivo caminho

[Solo] F#m

E|-12----------------12---------------------|
B|----10-12------10-----10-12------10-------|
G|----------9-11--------------9-11----------|(2x)
D|------------------------------------------|
A|------------------------------------------|
E|------------------------------------------|

[Primeira Parte]

A9           E
  Seu sangue, Sua cruz
F#m              D
    Me levam de volta pra Deus
A9           E
   Sua morte,  Sua vida
F#m           D  
    As trevas,  ele já venceu

E5             D5        E5            D5
  Seu amor me conquistou,  sou eterno devedor

[Segunda Parte]

G              D
  O véu se rasgou
                    F#m
Sua luz em mim brilhou
                  E                  
Sua glória me cobriu 
                      Bm  E
Mais que vencedor eu sou
                      Bm  E
Mais que vencedor eu sou

[Refrão]

A9                            E 
  Sei que na sala do trono está
                 F#m
Eu quero ir pra lá
             D9 
Pelo novo e vivo caminho

A9                            E 
  Sei que na sala do trono está
                 F#m
Eu quero ir pra lá
             D9 
Pelo novo e vivo caminho

A9                            E 
  Sei que na sala do trono está
                 F#m
Eu quero ir pra lá
             D9 
Pelo novo e vivo caminho

A9                            E 
  Sei que na sala do trono está
                 F#m
Eu quero ir pra lá
             D9 
Pelo novo e vivo caminho

[Final] F#m

E|-12----------------12---------------------|
B|----10-12------10-----10-12------10-------|
G|----------9-11--------------9-11----------|(2x)
D|------------------------------------------|
A|------------------------------------------|
E|------------------------------------------|

Clipes