busca

Teus Sonhos

Fernandinho

Tom: G
[Intro] Em  D
        Em  D

E|-----3-3h5-3----------8--7---7--7----2----------|
B|-----3-3---3----------8--8---8--8----3----------|
G|-----0----------------7--7---7--7----2---2-2-2--|
D|-------------------------------------0---0-0-0--|
A|------------------------------------------------|
E|------------------------------------------------|

E|--------------------------------------------------------------------|
B|--------------------------------------------------------------------|
G|-------------------4-5-4--------------------------4-5-4-------------|
D|---4h5--4-5-5/7-----------7-5-4--4h5---4-5-5/7-----------7-5-4--4h5-|
A|--------------------------------------------------------------------|
E|--------------------------------------------------------------------|

Em                G
Guarda o meu coração oh Deus
Em                G
Guarda o meu coração
                  Am
De fazer minha vontade
                  D
De viver pra mim mesmo

C9                      G      D
Quão insondáveis são os teus caminhos
C9                   G      D
Inescrutáveis são os teus juízos

         Em         G
Minha vontade já deixei
       C           D
O teu Reino já ganhei
          Em        G
Minha vontade já deixei
       C           D
O teu Reino já ganhei

         G            C               D
Os teus sonhos são maiores do que os meus
          Em               C               D
Os teus caminhos bem mais altos do que os meus
             Em
Toma minha vida
C       D
Tudo é teu
            Em
Toma minha vida
C      D
Tudo é teu

[Solo] C  Gm7  Dm  C

E|----------------------------------------------------------------------|
B|----------------------------------------------------------------------|
G|----------------------------------------------------------------------|
D|--14-14-14-14-14-14---5~~----15-15-15-15-15-15---8~-7----15--5---14~~-|
A|----------------------------------------------------------------------|
E|----------------------------------------------------------------------|

[Solo] C  Gm7  Dm  C

E|----------------------------------------------------------------------|
B|----------------------------------------------------------------------|
G|----------------------------------------------------------------------|
D|--14-14-14-14-14-14---5~~----15-15-15-15-15-15---8~-7----15--10-~~----|
A|----------------------------------------------------------------------|
E|----------------------------------------------------------------------|

C            Gm
Venha o teu reino
      Dm             C
Seja feita a tua vontade

         Em         G
Minha vontade já deixei

Clipes

Cifra Club Pro

Aproveite o Cifra Club com benefícios exclusivos e sem anúncios
7 dias grátis
Cifra Club Pro
Aproveite o Cifra Club com benefícios exclusivos e sem anúncios
7 dias grátis