busca

Um Dia Em Tua Casa

Fernandinho

Tom: A
Intro:
    A  Bm  D  E
E|----------------------------------
B|----------------------------------
G|------------7&9-------------------
D|---7&9-7&9--7&9--7&9-7&9----------
A|---7&9-7&9-------7&9-7&9--9-7-----
E|--------------------------7-5-----

Riff1:
    F#m  D  A  E
E|-------------------------------------------7-7-
B|---7-7--7-7--10-10--9-9---7-7--7-7--10-10------
G|-----------------------------------------------
D|-----------------------------------------------
A|-----------------------------------------------
E|-----------------------------------------------

Riff2:
    A  Bm  D  Bm   A
E|----------------------------------
B|----------------------------------
G|-------7--------------------------
D|---7&9-7-9&7----------------------
A|---7&9---9&7--9-7-----------------
E|--------------7-5-----------------

     F#m     D   A      E (Riff1 somente na 2x)
Maravilhoso é pra mim
     F#m     D   A      E
Maravilhoso é pra mim

A Bm D Bm A  Bm D Bm   (Riff2)
Viver em comunhão
    Bm A  Bm D Bm A  Bm D Bm A
Com os meus irmãos todos os dias

Bm       E            Bm
   O pardal encontrou casa
       E               Bm
A andorinha fez o seu ninho
        E              D          E
Eu encontrei os Teus altares, Senhor

(Refrão)

A         D     E
Um dia em Tua casa
         D         F#m
Vale mais do que mil noites
   D        E     D
Em outro lugar 3x

F#m          E/G#
Um dia em Tua casa
A               D
Vale mais do que mil noites
        E
Em outro lugar

Bm
Eu ando pelo mundo
D                    F#m
Mas Tua casa é o meu lar.

(Intro)

(Final)

Bm
Eu ando pelo mundo
D                    F#m
mas Tua casa é o meu lar.

Clipes