Um Dia Em Tua Casa

Fernandinho

Principal
A
123
X02220
Bm
234
X24432
D
123
XX0232
E
123
022100
E/G#
1234
4X245X
F#m
34
244222
Tom: G
#1t1#Intro:
    A  Bm  D  E
#1t2#E|----------------------------------
B|----------------------------------
G|------------7&9-------------------
D|---7&9-7&9--7&9--7&9-7&9----------
A|---7&9-7&9-------7&9-7&9--9-7-----
E|--------------------------7-5-----#/1t2##/1t1#

#2t1#Riff1:
    F#m  D  A  E
#2t2#E|-------------------------------------------7-7-
B|---7-7--7-7--10-10--9-9---7-7--7-7--10-10------
G|-----------------------------------------------
D|-----------------------------------------------
A|-----------------------------------------------
E|-----------------------------------------------#/2t2##/2t1#

#3t1#Riff2:
    A  Bm  D  Bm   A
#3t2#E|----------------------------------
B|----------------------------------
G|-------7--------------------------
D|---7&9-7-9&7----------------------
A|---7&9---9&7--9-7-----------------
E|--------------7-5-----------------#/3t2##/3t1#

     F#m     D   A      E (Riff1 somente na 2x)
Maravilhoso é pra mim
     F#m     D   A      E
Maravilhoso é pra mim

A Bm D Bm A  Bm D Bm   (Riff2)
Viver em comunhão
    Bm A  Bm D Bm A  Bm D Bm A
Com os meus irmãos todos os dias

Bm       E            Bm
   O pardal encontrou casa
       E               Bm
A andorinha fez o seu ninho
        E              D          E
Eu encontrei os Teus altares, Senhor

(Refrão)

A         D     E
Um dia em Tua casa
         D         F#m
Vale mais do que mil noites
   D        E     D
Em outro lugar 3x

F#m          E/G#
Um dia em Tua casa
A               D
Vale mais do que mil noites
        E
Em outro lugar

Bm
Eu ando pelo mundo
D                    F#m
Mas Tua casa é o meu lar.

(Intro)

(Final)

Bm
Eu ando pelo mundo
D                    F#m
mas Tua casa é o meu lar.
Composição: Fernandinho / Mano KeiloColaboração e revisão: Fernando