Uma Nova História

Fernandinho

A
123
X02220
B
234
X24442
B/D#
1234
X6X477
B4
234
X24452
Bm
234
X24432
D
123
XX0232
D/F#
1234
2X0232
D9
12
XX0230
E
123
022100
E/G#
1234
4X245X
F#m
34
244222
F#m7(11)
123
2X220X
Tom: G
[Intro] F#m  E  F#m  E

#1t1##1t2#E|----------------------|
B|----------------------|
G|----------------------|
D|----------------------|
A|----------------------|
E|-2-0------------------|#/1t2##/1t1#

#2t1##2t2#E|----------------------|
B|-10-9------10-9-------|
G|------9---------9-----|  (2x)
D|--------9-------------|
A|----------------------|
E|----------------------|#/2t2##/2t1#

#3t1#Sai de tua tenda
#3t2#E|-------12--------------14---10/9------|
B|----10-----10-9-----12----------------|     (2x)
G|-11--------------11--------------11---|
D|--------------------------------------|
A|--------------------------------------|
E|--------------------------------------|#/3t2##/3t1#

    F#m7(11)                 E
      Sai de tua tenda
          B4               D9                    F#m
Oh filho meu, e te mostrarei as estrelas do céu
              E
Sai da tua tenda
          B/D#               D              F#m
Oh filho meu, e te mostrarei a areia do mar

               E         B  D   F#m
    Será que podes contar
              E           B
    Será que podes imaginar
                    D                     F#m
Tudo aquilo que sonhei para ti, filho meu
                     E                     D
O que minhas mãos fizeram para ti, filho meu
                 Bm        D E
Minha benção será sobre ti

             A          D         E
Uma nova história Deus tem pra mim
          A          D        E
Um novo tempo Deus tem pra mim
                           A
De tudo aquilo que perdido foi
     D           E      1ª(A  E)
Ouvirei de Tua boca: "Te abençoarei!"  2ª(F#m   E)

#4t1#(solo)
              D                 E
#4t2#E|-------------------------------------------------------|
B|-9/10-10-10-9/10-------10/12-12-12-10/12---------------|   (2x)
G|------------------7-----------------------9------------|
D|-------------------------------------------------------|
A|-------------------------------------------------------|
E|-------------------------------------------------------|#/4t2##/4t1#

#5t1#              D                E
#5t2#E|--------------------------------------------------12---|
B|-9/10-10-10-9/10------9-10-10/12-12-12--10--12----15b--|
G|------------------7------------------------------------|
D|-6/7---7--7-6/7-------6--7--7/9--9--9----7--9----------|
A|------------------5------------------------------------|
E|-------------------------------------------------------|#/5t2##/5t1#

#6t1#            D/F#                          E/G#
#6t2#E|-12/14-14-14-14-16-17------17/19-19-19-19--16----------|
B|-----------------------15----------------------17------|
G|-------------------------------------------------------|
D|-------------------------------------------------------|
A|-------------------------------------------------------|
E|-------------------------------------------------------|#/6t2##/6t1#
Composição: FernandinhoColaboração e revisão: Bruno PlazaEduardo SalviAdjanio MeloEverson Nascomentoe mais 3
Videoaula Uma Nova História (aula de violão completa)