busca

Uma Nova História

Fernandinho

Tom: A
[Intro] F#m  E  F#m  E

E|----------------------|
B|----------------------|
G|----------------------|
D|----------------------|
A|----------------------|
E|-2-0------------------|

E|----------------------|
B|-10-9------10-9-------|
G|------9---------9-----|  (2x)
D|--------9-------------|
A|----------------------|
E|----------------------|

Sai de tua tenda
E|-------12--------------14---10/9------|
B|----10-----10-9-----12----------------|     (2x)
G|-11--------------11--------------11---|
D|--------------------------------------|
A|--------------------------------------|
E|--------------------------------------|

    F#m7(11)                 E
      Sai de tua tenda
          B4               D9                    F#m
Oh filho meu, e te mostrarei as estrelas do céu
              E
Sai da tua tenda
          B/D#               D              F#m
Oh filho meu, e te mostrarei a areia do mar

               E         B  D   F#m
    Será que podes contar
              E           B
    Será que podes imaginar
                    D                     F#m
Tudo aquilo que sonhei para ti, filho meu
                     E                     D
O que minhas mãos fizeram para ti, filho meu
                 Bm        D E
Minha benção será sobre ti

             A          D         E
Uma nova história Deus tem pra mim
          A          D        E
Um novo tempo Deus tem pra mim
                           A
De tudo aquilo que perdido foi
     D           E      1ª(A  E)
Ouvirei de Tua boca: "Te abençoarei!"  2ª(F#m   E)

(solo)
              D                 E
E|-------------------------------------------------------|
B|-9/10-10-10-9/10-------10/12-12-12-10/12---------------|   (2x)
G|------------------7-----------------------9------------|
D|-------------------------------------------------------|
A|-------------------------------------------------------|
E|-------------------------------------------------------|

              D                E
E|--------------------------------------------------12---|
B|-9/10-10-10-9/10------9-10-10/12-12-12--10--12----15b--|
G|------------------7------------------------------------|
D|-6/7---7--7-6/7-------6--7--7/9--9--9----7--9----------|
A|------------------5------------------------------------|
E|-------------------------------------------------------|

            D/F#                          E/G#
E|-12/14-14-14-14-16-17------17/19-19-19-19--16----------|
B|-----------------------15----------------------17------|
G|-------------------------------------------------------|
D|-------------------------------------------------------|
A|-------------------------------------------------------|
E|-------------------------------------------------------|

Clipes