busca

Uma Nova História

Fernandinho

Introdução:

E|--222222222222--000000000000--222222222222-000000000000----------|
A|-----------------------------------------------------------------|
D|-----------------------------------------------------------------|
G|-----------------------------------------------------------------|

Primeira parte e segunda parte
E|--222222222222--000000000000-------------------------------------|
A|------------------------------222222222222---555555555555--------|
D|-----------------------------------------------------------------|
G|-----------------------------------------------------------------|

Refrão:Uma Nova Historia Deus tem pra mim
E|----------------------------0-0-0-0-0-0--------------------------|
A|--0-0-0-0-0-0--5-5-5-5-5-5---------------------------------------|
D|-----------------------------------------------------------------|
G|-----------------------------------------------------------------|

Refrão:Um Novo Tempo Deus Tem Pra mim
E|----------------------------0-0-0-0-0-0--------------------------|
A|--0-0-0-0-0-0--5-5-5-5-5-5---------------------------------------|
D|-----------------------------------------------------------------|
G|-----------------------------------------------------------------|

Refrão:E Tudo Aquilo que perdido foi Ouvirei De sua Boca Te Abençoarei
E|----------------------------0-0-0-0-0-0--------------------------|
A|--0-0-0-0-0-0--5-5-5-5-5-5----------------0-0-0-0-0-0------------|
D|-----------------------------------------------------------------|
G|-----------------------------------------------------------------|

Clipes