busca

Vento Impetuoso

Fernandinho

Tom: C
Intro:

Guitarra 1
E|-------------------------------|-------------------------------------|
B|-------------------------------|--------------9/11-x/11--11/9-9-9/14-|
G|-------------------------------|-10/11-13----------------------------|
D|-----------6/8--6/8-8/10-10/11-|----------11-------------------------|
A|-8/9-11------------------------|-------------------------------------|
E|--------9----------------------|-------------------------------------|

Guitarra 2
E|-7/9-------------------------|
B|--------7/9--9/11------------|
G|--------------------6--------|
D|-----------------------------|
A|-----------------------------|
E|-----------------------------|

Verso:

C        G
Doce presença
    Dm      F
Perfume suave
    G
Eu Sei que estás
        F
Entre nós
        C
És bem vindo
        G
Fostes derramado
Dm               F
Vem reinar entre nós
Dm            F   (G na passagem para o refrão)
Habitar entre nós 

Refrão:

Am
Vento impetuoso
F
Sopra sobre nós
C
Como em pentecostes
G
Venha aqui reinar

Dm
Vento impetuoso
Am
Sopra sobre nós
C
Como em pentecostes
G
Venha aqui reinar

Solo:

E|--------------------------------------------------------------------------|
B|-------11-11-11\9-9--9--9------11-11-11\9-9--9--9------11-11-11\9-9--9--9-|
G|-10h13-------------------10h13-------------------10h13--------------------|
D|--------------------------------------------------------------------------|
A|--------------------------------------------------------------------------|
E|--------------------------------------------------------------------------|

E|-------------|
B|-------------|
G|-10b11r10-8~-|
D|-------------|
A|-------------|
E|-------------|

(Volta para o refrão)

Clipes