busca

A Tua Imagem

Fonzie

Tom: C#
E|8-8-8-6-8-8-8-6-|
B|----------------|
G|----------------|
D|----------------|
A|----------------|
E|----------------|

Intro: A# C# G#
E|----------------------------------------------------------
B|----------------------------------------------------------
G|----------------------------------------------------------
D|----------------------------------------------------------
A|8-6-4----------8-6-8-8---11-9-8--8--9-8---8---------------
E|---------6- 8-9-------------------9-------9-----8--11-9---

Intro:  A#m  C#m  G#m  F  G#  A#

A#
Vou gritar por ti
C#
Vou lembrar até morrer
G#
A saudade fica
A#
Lembranças guardadas
C#
Que me levam junto a ti
G#
No final vividas

( F#  G#  A# )
O sentimento é ingênuo
a saudade também
Tanto que eu rezei
Eu sei (eu sei)
Eu sei (eu sei)
Eu sei que vais
É o melhor para ti
acreditas-te que

A#
Não, não, não , não
F#
Eu não sou
C#
Nem quero ser
G#
A tua imagem até morrer
A#
Não, não, não , não
F#
Eu não sou
C#
Nem quero ser
G#
A tua imagem até morrer

Intro: A#m  C#m  G#m  F  G#  A#

A#
Em poucas palavras
C#
Não conseguirei esquecer
G#
Que da vida levas
A#
Pecados ficaram
C#
E ninguém irá saber,
G#
Os segredos brilham

( F#  G#  A# )
O sentimento é ingênuo
a saudade também
Tanto que eu rezei
Eu sei (eu sei)
Eu sei (eu sei)
Eu sei que vais,
É o melhor para ti
acreditas-te que

( A#  F#  C#  G# )
Não, não, não , não
Eu não sou
Nem quero ser
A tua imagem até morrer
Não, não, não , não
Eu não sou
Nem quero ser
A tua imagem até morrer

( F#  F  A#  G# )
Vou chorar
Eu vou
( F#  F  A#  G# )
Ficar só
Vim dizer-te adeus
Solo:
E|-----------------------------------------------------------------------
B|-----------------------------------------------------------------------
G|-13-10---13-10-----13-10----------13-10---13-10-----13-10--------------
D|---------------10--------10-11-13-------------------11-------10-11-10--
A|-----------------------------------------------------------------------
E|-----------------------------------------------------------------------

( A#  F#  C#  G# )
Não, não, não, não
Eu não sou
Nem quero ser
A tua imagem até morrer
Não, não, não, não
Eu não sou
Nem quero ser
A tua imagem até morrer
Não, não, não, não (eu não sou)
Eu não sou
Nem quero ser (e não quero ser)
A tua imagem até morrer
Não, não, não, não (eu não sou)
Eu não sou
Nem quero ser (e não quero ser)
A tua imagem até morrer.

Clipes

Cifra Club Pro

Aproveite o Cifra Club com benefícios exclusivos e sem anúncios
7 dias grátis
Cifra Club Pro
Aproveite o Cifra Club com benefícios exclusivos e sem anúncios
7 dias grátis