busca

Gotta Get Away

Fonzie

Tom: A#
Tuning: Standard
Questions or Comments send to: Henrique Barroso -> *


Hey everyone, this is my first tab to UG, it's from a Portuguese Punk Band.
I hope you like it, it's very easy, just follow the CD and you will understand
it nicely and easy.

intro
                                OH OH OH
                                gotta gotta get away
E|----------------------------------|
B|----------------------------------|
G|----------------------------------|
D|--88------------------------------| (2x)
A|--88------------------------------|
E|--66------------------------------|

e|--------------------------------------------------------|
B|--------------------------------------------------------|
G|--------------------------------------------------------|
D|--8888--10101010--13131313--15151515--------8888\3333---|  second guitar playing on the third time
D|----------------------------------|
A|----------------------------------|
E|----------------------------------|



Verse
There is a place where we can go
(but you're got to leave behind you're worries)
There is a place that you don't know
(but you're got to leave behind you're stories)
E|----------------------------------|
B|----------------------------------|
G|-----------8----------------------|   

Clipes