busca

Desliga Aí

Fred e Gustavo

Tom: G
[Intro] G  D/F#  Em  C9

E|------------------------------------|
B|------------------------------------|
G|-5/7--7-7-7-9-7-7-7--4-7-7----------|
D|------------------------------------|
A|------------------------------------|
E|------------------------------------|


E|------------------------------------|
B|------------------------------------|
G|-5/7-7-7-9-7-7-7--9/12-11-9-7--4-0--|
D|------------------------------------|
A|------------------------------------|
E|------------------------------------|


[Primeira Parte]

     G                            D/F#
Boa noite, não tô querendo incomodar
Bati aqui na sua porta
 Em                          C
Só pra te lembrar são dez e vinte, tá no limite
D/F#  G                                D/F#
Eu sei que você não tem nada a ver com isso
                                     Em
Que culpa você tem se eu não tenho juízo
Eu me apaixono por alguém que não me quer
        C
Que me deixa, me abraça vem e faz tudo o que quer

[Pré-Refrão]

 Em                               Bm
Mas, o seu porta mala não tem piedade
                                    C  Am
Tá repetindo a moda que me traz saudade
         D
Desliga por favor

[Refrão]

     G
Você acabou com meu psicológico
             D/F#
Fica dando play na minha música eu choro
               Em
Ela me faz sofrer
Eu penso em beber
                 C
Não dá pra conviver
    D
Desliga aí vizinho

     G
Você acabou com meu psicológico
             D/F#
Fica dando play na minha música eu choro
               Em
Ela me faz sofrer
Eu penso em beber
                 C
Não dá pra conviver
    D
Desliga aí vizinho

[Solo] G  D/F#  Em  C

E|------------------------------------|
B|------------------------------------|
G|-5/7--7-7-7-9-7-7-7--4-7-7----------|
D|------------------------------------|
A|------------------------------------|
E|------------------------------------|


E|------------------------------------|
B|------------------------------------|
G|-5/7-7-7-9-7-7-7--9/12-11-9-7--4-0--|
D|------------------------------------|
A|------------------------------------|
E|------------------------------------|


[Primeira Parte]

     G                            D/F#
Boa noite, não tô querendo incomodar
Bati aqui na sua porta
 Em                          C
Só pra te lembrar são dez e vinte, tá no limite
D/F#  G                                D/F#
Eu sei que você não tem nada a ver com isso
                                     Em
Que culpa você tem se eu não tenho juízo
Eu me apaixono por alguém que não me quer
        C
Que me deixa, me abraça vem e faz tudo o que quer

[Pré-Refrão]

 Em                               Bm
Mas, o seu porta mala não tem piedade
                                    C  Am
Tá repetindo a moda que me traz saudade
         D
Desliga por favor

[Refrão]

     G
Você acabou com meu psicológico
             D/F#
Fica dando play na minha música eu choro
               Em
Ela me faz sofrer
Eu penso em beber
                 C
Não dá pra conviver
    D
Desliga aí vizinho

     G
Você acabou com meu psicológico
             D/F#
Fica dando play na minha música eu choro
               Em
Ela me faz sofrer
Eu penso em beber
                 C
Não dá pra conviver

     G
Você acabou com meu psicológico
             D/F#
Fica dando play na minha música eu choro
               Em
Ela me faz sofrer
Eu penso em beber
                 C
Não dá pra conviver
    D
Desliga aí vizinho

     G
Você acabou com meu psicológico
             D/F#
Fica dando play na minha música eu choro
               Em
Ela me faz sofrer
Eu penso em beber
                 C
Não dá pra conviver
    D            G
Desliga aí vizinho

Clipes

Cifra Club Pro

Aproveite o Cifra Club com benefícios exclusivos e sem anúncios
Cifra Club Pro
Aproveite o Cifra Club com benefícios exclusivos e sem anúncios