busca

Ela Ta Dançando

Fred e Gustavo

Tom: G
[Intro] Em  C  G  D
        Em  C  G  D
        Em  C  G  D
        Em  C  G  D

E|------------------------------|
B|-7-4--7-7-4-------------------|
G|-------------6-6-8-6-6--------|
D|------------------------8-6~--|
A|------------------------------|
E|------------------------------|

E|------------------------------|
B|-7-4--7-7-4-------------------|
G|-------------6-6-8-6-6--------|
D|------------------------8-6~--|
A|------------------------------|
E|------------------------------|

E|------------------------------|
B|-7-7-6-6-4-4------------------|
G|--------------6-6-------------|
D|-------------------8-8-6-6----|
A|------------------------------|
E|------------------------------|

E|------------------------------|
B|-7-7-6-6-4-4------------------|
G|--------------6-6-------6-8-8-|
D|-------------------8-8--------|
A|------------------------------|
E|------------------------------|

[Primeira Parte]

Em                    C
  Cabelo solto, todo jogado de lado
 G               D
Jeitinho Safado,jeitinho Safado
Em                    C
  Sua tatuagem deixa hipnotizado
G                D
Eu fico vidrado no seu rebolado

[Pré-Refrão]

Em                         C
  Ela tá dançando, eu to suando
                          G
Ela tá dançando, eu to bebendo
                          D
Ela tá dançando, eu quero atacar
Em                         C
  Ela tá dançando, eu to suando
                          G
Ela tá dançando, eu to bebendo
                         D
Ela tá dançando, eu vou te falar

[Refrão]

Em            C
Ei menina, empina, empina
    G
Que eu já to no clima
    D
Que eu já vou pra cima
Em            C
Ei menina, empina, empina
    G
Que eu já to no clima
    D
Que eu já vou pra cima

[Solo] Em  C  G  D
       Em  C  G  D
       Em  C  G  D
       Em  C  G  D

E|------------------------------|
B|-7-4--7-7-4-------------------|
G|-------------6-6-8-6-6--------|
D|------------------------8-6~--|
A|------------------------------|
E|------------------------------|

E|------------------------------|
B|-7-4--7-7-4-------------------|
G|-------------6-6-8-6-6--------|
D|------------------------8-6~--|
A|------------------------------|
E|------------------------------|

E|------------------------------|
B|-7-7-6-6-4-4------------------|
G|--------------6-6-------------|
D|-------------------8-8-6-6----|
A|------------------------------|
E|------------------------------|

E|------------------------------|
B|-7-7-6-6-4-4------------------|
G|--------------6-6-------6-8-8-|
D|-------------------8-8--------|
A|------------------------------|
E|------------------------------|

[Primeira Parte]

Em                    C
  Cabelo solto, todo jogado de lado
 G               D
Jeitinho Safado,jeitinho Safado
Em                    C
  Sua tatuagem deixa hipnotizado
G                D
Eu fico vidrado no seu rebolado

[Pré-Refrão]

Em                         C
  Ela tá dançando, eu to suando
                          G
Ela tá dançando, eu to bebendo
                          D
Ela tá dançando, eu quero atacar
Em                         C
  Ela tá dançando, eu to suando
                          G
Ela tá dançando, eu to bebendo
                         D
Ela tá dançando, eu vou te falar

[Refrão]

Em            C
Ei menina, empina, empina
    G
Que eu já to no clima
    D
Que eu já vou pra cima
Em            C
Ei menina, empina, empina
    G
Que eu já to no clima
    D
Que eu já vou pra cima

[Pré-Refrão]

Em                         C
  Ela tá dançando, eu to suando
                          G
Ela tá dançando, eu to bebendo
                          D
Ela tá dançando, eu quero atacar
Em                         C
  Ela tá dançando, eu to suando
                          G
Ela tá dançando, eu to bebendo
                         D
Ela tá dançando, eu vou te falar

[Refrão]

Em            C
Ei menina, empina, empina
    G
Que eu já to no clima
    D
Que eu já vou pra cima
Em            C
Ei menina, empina, empina
    G
Que eu já to no clima
    D
Que eu já vou pra cima

Em            C
Ei menina, empina, empina
    G
Que eu já to no clima
    D
Que eu já vou pra cima
Em            C
Ei menina, empina, empina
    G
Que eu já to no clima
    D
Que eu já vou pra cima

[Final] Em  C  G  D
        Em  C  G  D
        Em  C  G  D

E|------------------------------|
B|-7-4--7-7-4-------------------|
G|-------------6-6-8-6-6--------|
D|------------------------8-6~--|
A|------------------------------|
E|------------------------------|

E|------------------------------|
B|-7-4--7-7-4-------------------|
G|-------------6-6-8-6-6--------|
D|------------------------8-6~--|
A|------------------------------|
E|------------------------------|

E|------------------------------|
B|-7-7-6-6-4-4------------------|
G|--------------6-6-------------|
D|-------------------8-8-6-6----|
A|------------------------------|
E|------------------------------|

Clipes

Cifra Club Pro

Aproveite o Cifra Club com benefícios exclusivos e sem anúncios
Cifra Club Pro
Aproveite o Cifra Club com benefícios exclusivos e sem anúncios