busca

Então Valeu

Fred e Gustavo

Tom: Eb (forma dos acordes no tom de C) Capotraste na 3ª casa
[Intro]

   C            G4/B         Am7          F
E|---------3-----------3------------0-----1-|
B|-----------1-----------1------------1---1-|
G|------0------------0------------0-------2-|
D|----2------------0------------2---------3-|
A|--3------------2------------0-----------3-|
E|----------------------------------------1-|

[Primeira Parte]

C
 Te dei o meu amor, você não quis cuidar
G4/B
 Eu senti o sabor da lágrima rolar
Am7
 Agora senta aqui, você vai escutar
F                       G
 Tudo que me fez sofrer, tudo que me fez passar

[Pré-Refrão]

C
 Ao encontrar você eu me perdi de mim
G
 O que é que eu fui querer, por que te amei assim?
Am
 Sem alma e coração, você é tão ruim
F                     G                       ( F  C  F  G )
 E agora que eu to bem você quer voltar pra mim

[Refrão]

C  F   G  C                               G
Então va_leu te ver assim pedindo pra voltar
                              Am
Valeu demais te ver no meu lugar
                              F                  G
Valeu te ver sofrer o que sofri chorar o que chorei
         C                               G
Então valeu te ver, mas eu preciso te falar
                                 Am
To bem melhor e alguém no seu lugar me faz feliz
              F                  G
Que sabe me amar, então valeu demais te encontrar

[Solo] C  G  Am  F  G

E|------------------------------------------|
B|--0-1-3-3h5--3-3h5--3-3h5--3-3-3h5-5p3-1--|
G|------------------------------------------|
D|------------------------------------------|
A|------------------------------------------|
E|------------------------------------------|

E|------------------------------------------|
B|--1h3--1-1h3--1-1h3--1-1h3-3p1-1p0--------|
G|-----------------------------------0h2----|
D|------------------------------------------|
A|------------------------------------------|
E|------------------------------------------|

E|------------------------------------------|
B|------1p0--------------0-1-1h3-3p1--3/5---|
G|--0h5-----5-0-0h5--0h5--------------------|
D|------------------------------------------|
A|------------------------------------------|
E|------------------------------------------|

E|--3-3-3h5-3--1p0--------------------------|
B|------------------3-1-3/5-----------------|
G|------------------------------------------|
D|------------------------------------------|
A|------------------------------------------|
E|------------------------------------------|

[Primeira Parte]

C
 Te dei o meu amor, você não quis cuidar
G
 Eu senti o sabor da lágrima rolar
Am
 Agora senta aqui, você vai escutar
F                       G
 Tudo que me fez sofrer, tudo que me fez passar

[Pré-Refrão]

C
 Ao encontrar você eu me perdi de mim
G
 O que é que eu fui querer, por que te amei assim?
Am
 Sem alma e coração, você é tão ruim
F                     G                     (F C F G)
 E agora que eu to bem você quer voltar pra mim

[Refrão]

C  F   G  C                               G
Então va_leu te ver assim pedindo pra voltar
                              Am
Valeu demais te ver no meu lugar
                              F                  G
Valeu te ver sofrer o que sofri chorar o que chorei
         C                               G
Então valeu te ver, mas eu preciso te falar
                                 Am
To bem melhor e alguém no seu lugar me faz feliz
              F                  G
Que sabe me amar, então valeu demais te encontrar

C  F   G  C                               G
Então va_leu te ver assim pedindo pra voltar
                              Am
Valeu demais te ver no meu lugar
                              F                  G
Valeu te ver sofrer o que sofri chorar o que chorei
         C                               G
Então valeu te ver, mas eu preciso te falar
                                 Am
To bem melhor e alguém no seu lugar me faz feliz
              F                  G
Que sabe me amar, então valeu demais te encontrar

[Final] C  G  Am  F  C

E|---------3---3-3-3p1p0--------------------|
B|-0-1-3------------------3-1---------------|
G|------------------------------------------|
D|------------------------------------------|
A|------------------------------------------|
E|------------------------------------------|

E|-3/5-3-------3/5-3------------------------|
B|--------6-5---------3h5-------------------|
G|------------------------------------------|
D|------------------------------------------|
A|------------------------------------------|
E|------------------------------------------|

Clipes

Cifra Club Pro

Aproveite o Cifra Club com benefícios exclusivos e sem anúncios
Cifra Club Pro
Aproveite o Cifra Club com benefícios exclusivos e sem anúncios