Eu Tô Com Você

Fred e Gustavo

A
123
X02220
A9
12
X02200
D
123
XX0232
Em
12
022000
G
123
320003
Tom: G
#1t1# Intro: D G A D
#1t2#E|----------------------------------------------------------
B|----------------3-----3/5-5/7-7-----------------------
G-2-2-2/4------4-------------------------------------
D|-----------------------------------------------------------
A|-----------------------------------------------------------
E|-----------------------------------------------------------#/1t2##/1t1#

#2t1##2t2#E|----------------------------------------------------------
B|----------------3-----3/5-5/7- 3 ~--------------------
G-2-2-2/4------4--------------------------------------
D|-----------------------------------------------------------
A|-----------------------------------------------------------
E|-----------------------------------------------------------#/2t2##/2t1#

#3t1##3t2#E-5-5-5/3-3-3/2--2-2---------------------------------
B|-------------------------------------3-3--------------------
G|-----------------------------2-4----------------------------
D|-------------------------------------------------------------
A|-------------------------------------------------------------
E|--------------------------------------------------------------#/3t2##/3t1#

D                               G
Não precisa disfarçar tá na cara
D                           G
Pode segurar minha mão sem medo não para
EM                             G
Eu tô com você esconder pra que
                                D
Todo mundo tá vendo sabendo da gente
EM                       G
Até porque não da pra viver
                                       A9
Sem mostrar pro povo o que a gente sente

Refrão:
G
Eu quero é que vejam que falem
                             D
Que saia no rádio Tv e no jornal que eu tô com você
                Em
Eu quero é que vejam que falem
 G                                D
A gente não tem motivo pra esconder

Que eu tô com você
G                   A9                D
Deixa falar o que quiser falar da gente
Composição: Colaboração e revisão: Lucas Moreira