busca

Eu Tô Com Você

Fred e Gustavo

Tom: D
 Intro: D G A D
E|----------------------------------------------------------
B|----------------3-----3/5-5/7-7-----------------------
G-2-2-2/4------4-------------------------------------
D|-----------------------------------------------------------
A|-----------------------------------------------------------
E|-----------------------------------------------------------

E|----------------------------------------------------------
B|----------------3-----3/5-5/7- 3 ~--------------------
G-2-2-2/4------4--------------------------------------
D|-----------------------------------------------------------
A|-----------------------------------------------------------
E|-----------------------------------------------------------

E-5-5-5/3-3-3/2--2-2---------------------------------
B|-------------------------------------3-3--------------------
G|-----------------------------2-4----------------------------
D|-------------------------------------------------------------
A|-------------------------------------------------------------
E|--------------------------------------------------------------

D                               G
Não precisa disfarçar tá na cara
D                           G
Pode segurar minha mão sem medo não para
EM                             G
Eu tô com você esconder pra que
                                D
Todo mundo tá vendo sabendo da gente
EM                       G
Até porque não da pra viver
                                       A9
Sem mostrar pro povo o que a gente sente

Refrão:
G
Eu quero é que vejam que falem
                             D
Que saia no rádio Tv e no jornal que eu tô com você
                Em
Eu quero é que vejam que falem
 G                                D
A gente não tem motivo pra esconder

Que eu tô com você
G                   A9                D
Deixa falar o que quiser falar da gente

Clipes

Cifra Club Pro

Aproveite o Cifra Club com benefícios exclusivos e sem anúncios
Cifra Club Pro
Aproveite o Cifra Club com benefícios exclusivos e sem anúncios