busca

Eu Vou Te Amar

Fred e Gustavo

Tom: Bb (forma dos acordes no tom de A) Capotraste na 1ª casa
Introdução:

(Teclado)

E|-10h11-13-13-15-13-11-10----------------------------------------------|
B|-------------------------11--13-11------------------------------------|
G|-----------------------------14-12--------12p10-8---------------------|
D|------------------------------------10h12---------12--10/12-10--8-7-5-|
A|-------------------------------------------------------8/10-8---------|
E|----------------------------------------------------------------------|

(Violão)

   A         E       F#m          D
E|--------------------5h6p5-------|
B|-3h4-4/6-6-4\3------------6-6/8-|
G|---------------5-3--------------|
D|--------------------------------|
A|--------------------------------|
E|--------------------------------|


A      E   D          E            A
É diferente eu nunca vi um amor assim
              E   D        E
chegou de repente já tomou conta de mim
   A
Eu quero acordar com você comigo
   F#m
Eu quero ser pra sempre seu melhor amigo
   D
Eu quero ir até o fim da vida contigo
     E         F#m
Eu quero  B|-6/8-|

            D                A                E  F#m
Mas é tão triste poder te ver e não poder te tocar
           D        A                       E    F#m     D
Como aceitar esse vazio sem você pra me abraçar... ar... ar
E|-------------------------------|
B|-----3h4p3-----4-6-3h4p3-------|
G|-3h5-------5-3-----------3h5-3-|
D|-------------------------------|
A|-------------------------------|
E|-------------------------------|


A            E    (parada)          F#m
A solidão bateu no peito não teve jeito
               D
Tô preso em você
E|--------------------------|
B|-4-4-3h4p3--3h4p3---------|
G|------------------5p3-5/7-|
D|--------------------------|
A|--------------------------|
E|--------------------------|


A             E                           F#m
Não importa o tempo que eu tenha que esperar
            D
Eu vou te amar
            A     E    F#m   D
Eu vou te amar... ar... ar...

            A     E    F#m   D
Eu vou te amar... ar... ar...
           A
Eu vou te amar

Solo:

   A         E       F#m          D
E|--------------------------5/6-6/11-10-10-8-8/10-10--|
B|-3h4-4/6-6-4\3--------3h4---------------------------|
G|---------------5-5\3--------------------------------|
D|----------------------------------------------------|
A|----------------------------------------------------|
E|----------------------------------------------------|
   A             E            F#m             D
E|-10h11-11/13-13-11-10--------------------------------|
B|----------------------13-13/11--11-10h11p10----------|
G|--------------------------------------------10-10/12-|
D|-----------------------------------------------------|
A|-----------------------------------------------------|
E|-----------------------------------------------------|


   A
Eu quero acordar com você comigo
   F#m
Eu quero ser pra sempre seu melhor amigo
   D
Eu quero ir até o fim da vida contigo
     E         F#m
Eu quero  B|-6/8-|

            D                A                E  F#m
Mas é tão triste poder te ver e não poder te tocar
           D        A                       E    F#m     D
Como aceitar esse vazio sem você pra me abraçar... ar... ar
E|-------------------------------|
B|-----3h4p3-----4-6-3h4p3-------|
G|-3h5-------5-3-----------3h5-3-|
D|-------------------------------|
A|-------------------------------|
E|-------------------------------|


A            E    (parada)          F#m
A solidão bateu no peito não teve jeito
               D
Tô preso em você
E|--------------------------|
B|-4-4-3h4p3--3h4p3---------|
G|------------------5p3-5/7-|
D|--------------------------|
A|--------------------------|
E|--------------------------|


A             E                           F#m
Não importa o tempo que eu tenha que esperar
            D
Eu vou te amar
            A     E    F#m   D
Eu vou te amar... ar... ar...

            A     E    F#m   D
Eu vou te amar... ar... ar...
           A
Eu vou te amar
   A         E       F#m          D
E|--------------------5h6p5-------|
B|-3h4-4/6-6-4\3------------6-6/8-|
G|---------------5-3--------------|
D|--------------------------------|
A|--------------------------------|
E|--------------------------------|

Clipes

Cifra Club Pro

Aproveite o Cifra Club com benefícios exclusivos e sem anúncios
Cifra Club Pro
Aproveite o Cifra Club com benefícios exclusivos e sem anúncios