busca

Intimidade

Fred e Gustavo

Tom: C
Am
É a nossa intimidade...
G
Relaxa, relaxa
Am
Guarde meu nome em segredo

Eu e você no paraíso
Dm
Não fala nada, perde o juízo
                    G
Não perca tempo que hoje eu preciso
Am                  G
É nossa intimidade, relaxa, relaxa
Am
Ninguém deve saber o que se passa nesse quarto
Dm
Só agente sabe do jeito que cê gosta
                    G
Pode aproveitar que hoje a noite é nossa
F
É loucura o seu beijo vicia
G
O calor do seu corpo me guia
Am
Tá me induzindo a fazer besteira
F
Vem mordendo no canto da boca
G
Te falei que a noite ia ser louca
Am                    G                    C
Vai sussurrar no meu ouvido a noite inteira

Tranca a porta apaga a luz e vai tirando a roupa
Dm                         F
Fica a vontade, mata a vontade
      G
Hoje ninguém te acha
C
Fiquei o dia inteiro imaginando a nossa noite
Dm                             F
De hoje não passa, você não escapa
G                  Am
É nossa intimidade Relaxa, relaxa"

Solo:

E|--------------------------------------------------------------------|
A|--------------------------------------------------------------------|
D|--------------------------------------------------------------------|
G|-12-12-12-12-12\9-9-9-9\7-7-7-7\5-7\9-5h7-7---5-7\9-5h7-7-5-7\9-5-5-|
B|--------------------------------------------7------------7----------|
E|--------------------------------------------------------------------|

E|------------------------------------------|
A|------------------------------------------|
D|-----------------------------8-8-8-6-5h6-5|
G|-7-7-7-7-7-5-------5-7h9-5-5--------------|
B|-------------7-5-7------------------------|
E|------------------------------------------|
 
Am
É a nossa intimidade...
G
Relaxa, relaxa
Am
Ninguém deve saber o que se passa nesse quarto
Dm
Só agente sabe do jeito que cê gosta
                    G
Pode aproveitar que hoje a noite é nossa
F
É loucura o seu beijo vicia
G
O calor do seu corpo me guia
Am
Tá me induzindo a fazer besteira
F
Vem mordendo no canto da boca
G
Te falei que a noite ia ser louca
Am                    G                    C
Vai sussurrar no meu ouvido a noite inteira

REFRÃO(2X)
C
Tranca a porta apaga a luz e vai tirando a roupa
Dm                         F
Fica a vontade, mata a vontade
      G
Hoje ninguém te acha
C
Fiquei o dia inteiro imaginando a nossa noite
Dm                             F
De hoje não passa, você não escapa
G                  Am
É nossa intimidade Relaxa, relaxa"

Clipes

Cifra Club Pro

Aproveite o Cifra Club com benefícios exclusivos e sem anúncios
Cifra Club Pro
Aproveite o Cifra Club com benefícios exclusivos e sem anúncios