busca

Jejum de Amor

Fred e Gustavo

Tom: E
[Intro] E  C#m  B  A  E  B/D#
        C#m  B  A  E

E|------------------------------------------------------------|
B|-----------5-4-5--5-5-5-5-4-4-4-2-0--0-2-0-2-0-0p2-0--------|
G|--4-4-4--4--------------------------------------------------|
D|-----------------------------------------------------4-4p6--|
A|------------------------------------------------------------|
E|------------------------------------------------------------|

E|------------------------------------------------------------|
B|-----------5-4-4p7-5--5-5-5-5-4-4-4-2-0---------------------|
G|--4-4-4--4------------------------------1-2-1-2-4-4p6-4-----|
D|--------------------------------------------------------4-6-|
A|------------------------------------------------------------|
E|------------------------------------------------------------|

[Primeira Parte]

              C#m               B9
Não sou de ficar mais de uma semana sem amor
 A9                          E
Sem um beijo, sem um corpo, tá difícil
 B/D#          C#m           B9
Deixa eu te falar, eu vou fazer jejum de amor
  A9
Pra provar o que eu sinto

[Pré-Refrão]

E                B/D#      C#m
 Quer saber? Eu tô arrependido
                           B/D#
Porque não falei no seu ouvido
                       A9
As frases de amor que não falei
               E
Em nosso cobertor
      B/D#      C#m                   B/D#
Sentimento proibido, até parece impossível
                     A9                       B9
Quer saber? Eu necessito ter de volta seu calor

[Refrão]

            C#m
Sua boca é minha
          A9
Domina a minha
                  E                        B9
E o que é que as duas estão fazendo tão sozinhas?
            C#m
Sua boca é minha
          A9
Domina a minha
                  E                        B9
E o que é que as duas estão fazendo tão sozinhas?

Ai, ai, ai, boca minha

[Solo] E  C#m  B  A  E  B/D#
       C#m  B  A  E

E|------------------------------------------------------------|
B|-----------5-4-5--5-5-5-5-4-4-4-2-0--0-2-0-2-0-0p2-0--------|
G|--4-4-4--4--------------------------------------------------|
D|-----------------------------------------------------4-4p6--|
A|------------------------------------------------------------|
E|------------------------------------------------------------|

E|------------------------------------------------------------|
B|-----------5-4-4p7-5--5-5-5-5-4-4-4-2-0---------------------|
G|--4-4-4--4------------------------------1-2-1-2-4-4p6-4-----|
D|--------------------------------------------------------4-6-|
A|------------------------------------------------------------|
E|------------------------------------------------------------|

[Primeira Parte]

              C#m               B9
Não sou de ficar mais de uma semana sem amor
 A9                          E
Sem um beijo, sem um corpo, tá difícil
 B/D#          C#m           B9
Deixa eu te falar, eu vou fazer jejum de amor
  A9
Pra provar o que eu sinto

[Pré-Refrão]

E                B/D#      C#m
 Quer saber? Eu tô arrependido
                           B/D#
Porque não falei no seu ouvido
                       A9
As frases de amor que não falei
               E
Em nosso cobertor
      B/D#      C#m                   B/D#
Sentimento proibido, até parece impossível
                     A9                       B9
Quer saber? Eu necessito ter de volta seu calor

[Refrão]

            C#m
Sua boca é minha
          A9
Domina a minha
                  E                        B9
E o que é que as duas estão fazendo tão sozinhas?
            C#m
Sua boca é minha
          A9
Domina a minha
                  E                        B9
E o que é que as duas estão fazendo tão sozinhas?

            C#m
Sua boca é minha
          A9
Domina a minha
                  E                        B9
E o que é que as duas estão fazendo tão sozinhas?
            C#m
Sua boca é minha
          A9
Domina a minha
                  E                        B9
E o que é que as duas estão fazendo tão sozinhas?

Ai, ai, ai, boca minha

[FInal] E  C#m  B  A  E  B/D#
        C#m  B  A  E

E|------------------------------------------------------------|
B|-----------5-4-5--5-5-5-5-4-4-4-2-0--0-2-0-2-0-0p2-0--------|
G|--4-4-4--4--------------------------------------------------|
D|-----------------------------------------------------4-4p6--|
A|------------------------------------------------------------|
E|------------------------------------------------------------|

E|------------------------------------------------------------|
B|-----------5-4-4p7-5--5-5-5-5-4-4-4-2-0---------------------|
G|--4-4-4--4------------------------------1-2-1-2-4-4p6-4-----|
D|--------------------------------------------------------4-6-|
A|------------------------------------------------------------|
E|------------------------------------------------------------|

Clipes

Cifra Club Pro

Aproveite o Cifra Club com benefícios exclusivos e sem anúncios
Cifra Club Pro
Aproveite o Cifra Club com benefícios exclusivos e sem anúncios