busca

Não Dá Pra Te Esquecer

Fred e Gustavo

Tom: D#
E|------------------------------------------------------------------------------
B|----6/8-6-4-3-4-6/8-6-4-3-1-4---4-4-4--4/5-------------------------------------
G|--3---------------------------3-----------------------------------------------
D|------------------------------------------------------------------------------
A|------------------------------------------------------------------------------
E|------------------------------------------------------------------------------

E|------------------------------------------------------------------------------
B|----8-7-5-3-2-3---------------------------------------------------------------
G|------------------------------------------------------------------------------
D|------------------------------------------------------------------------------
A|------------------------------------------------------------------------------
E|------------------------------------------------------------------------------

E|------------------------------------------------------------------------------
B|----6/8-6-4-3-4-6/8-6-4-3-1-4---4-4-4--4/5-------------------------------------
G|--3---------------------------3-----------------------------------------------
D|------------------------------------------------------------------------------
A|------------------------------------------------------------------------------
E|------------------------------------------------------------------------------
                           
    D#                 A#        Cm
Não da mais pra viver sem ter você                                   
                               D#
não aguento mais sofrer, não dá
Fm                A#
meu coracao não quer
   D#               A#       Cm
Eu ja tentei viver outra paixão 
       Gm        G#       D#
enganar meu coração não dá 
     Fm            A   G
é você quem ele quer
          Cm
Nossa história de amor 
 Gm         G#             D#
já fiz de tudo pra esquecer
 Cm             
Mais todo lugar que vou 
 GM         G#          A# G
tudo me faz lembrar você
Cm                   Gm         G#               A#
Pelas festas da cidade pelos bares que a gente ia
Fm  
solidao é um castigo 
       A#
sem a sua companhia
D#                 A#            Cm
Eu não quero mais viver de solidão 
               A#   G#
só que no meu coração 
                     D#  A#4 A#
só tem lugar pra vOcê

       D#                  A#             Cm
Sei lá quem sabe até encontre um outro amor
                  A#         G#
que possa acalmar a minha dor
                     D#     Fm
mais não vou deixar de querer 
    A#4    A#       D#
não dá pra te esquecer

Clipes

Cifra Club Pro

Aproveite o Cifra Club com benefícios exclusivos e sem anúncios
Cifra Club Pro
Aproveite o Cifra Club com benefícios exclusivos e sem anúncios