busca

Pra Te Esquecer

Fred e Gustavo

Tom: Eb (forma dos acordes no tom de C) Capotraste na 3ª casa
E|----------------------------------------------------------|
B|----------------------------------------------------------|
G|---8-7-3---8-7-3--8-7-3-----------------------------------|
D|--------------------------10--8----3----------------------|
A|----------------------------------------------------------|
E|----------------------------------------------------------|

C              F
Me perdi por você
Am                F
Sem pensar eu te amei
C              F
Nada mais vem depois
Am                G
Tanto faz sem nós dois

F           G
Culpados, errados
Am          (Riff 1)
Não importa mais
F                            G
O amor pra gente é tarde demais

Refrão:
C   G  Am  F                C   G  F     G (Riff 2)
Vou.. levar só o que sobrou de mim
C   G  Am  F                C  G  F             G     (Riff 2)
Vou lembrar de tudo que me fez sofrer Pra te esquecer
E|----------------------------------------------------------|
B|----------------------------------------------------------|
G|---8-7-3---8-7-3--8-7-3-----------10-10-10--10-8-7-5~-----|
D|--------------------------10--8---------------------------|
A|----------------------------------------------------------|
E|----------------------------------------------------------|

F           G
Culpados, errados
Am          (Riff 1)
Não importa mais
F                            G
O amor pra gente é tarde demais

Refrão 2x:
C   G  Am  F                C  G F     G (Riff 2)
Vou.. levar só o que sobrou de mim
C   G  Am  F                C  G F     G  (Riff 2)
Vou lembrar de tudo que me fez sofrer pra te esquecer
E|----------------------------------------------------------|
B|----------------------------------------------------------|
G|---8-7-3---8-7-3--8-7-3-----------------------------------|
D|--------------------------10--8----3----------------------|
A|----------------------------------------------------------|
E|----------------------------------------------------------|

Riff's :
(riff 1 )
E|-----------------------------------------------------------|
B|-----3-4---------4-----------------------------------------|
G|------------5-------5--------------------------------------|
D|--------------5--------------------------------------------|
A|-----------------------------------------------------------|
E|-----------------------------------------------------------|

(Riff 2)
E|-----------------------------------------------------------|
B|--8--6---4---4h6--4~---------------------------------------|
G|-----------------------------------------------------------|
D|-----------------------------------------------------------|
A|-----------------------------------------------------------|
E|-----------------------------------------------------------|

Clipes

Cifra Club Pro

Aproveite o Cifra Club com benefícios exclusivos e sem anúncios
Cifra Club Pro
Aproveite o Cifra Club com benefícios exclusivos e sem anúncios