busca

Três Corações

Fred e Gustavo

Tom: C
[Intro] G#m  B  C#m  E

E|------------------------------------------|
B|------------------------------------------|
G|---6/8-8-8--3-4-3-4-3-4-3-4--3h4p3--------|
D|------------------------------------6-----|
A|------------------------------------------|
E|------------------------------------------|

E|------------------------------------------|
B|------------------------------------------|
G|---6/8-8-8--3-4-3-4-3-4-3-4--3h4p3--------|
D|------------------------------------4-----|
A|------------------------------------------|
E|------------------------------------------|

E|------------------------------------------|
B|------------------------------------------|
G|---6/8-8-8--4-6-4-6-4-6-4-6--6/8--6-------|
D|------------------------------------------|
A|------------------------------------------|
E|------------------------------------------|

E|------------------------------------------|
B|------------------------------------------|
G|---6/8-8-8--3-4-3-4-3-4-3-4--3h4p3--------|
D|------------------------------------6-----|
A|------------------------------------------|
E|------------------------------------------|

[Primeira Parte]

    G#m
Eu vivo dividido entre amor e prazer
    B
Já sei que isso é errado, mas o que fazer?
   C#m
Se eu sou de carne e osso
                              E   F#
E meu corpo é refém do meu desejo

       G#m
Dois cheiros me causando a mesma sensação
    B
Por uma sinto amor, por outra atração
    C#m
Eu tento ser fiel, mas quando ela vem
   E               F#
Desisto por um beijo

[Pré-Refrão]

E                      F#                    G#m       F#
 Nesse segredo quanto mais eu penso eu fico louco, louco
         E                    D#7
Eu tenho água, mas busco por fogo

[Refrão]

        G#m
Dois olhares partindo meu coração ao meio
      F#
Duas bocas que levam o gosto do meu beijo
                C#m
Dois corpos que eu preciso e me pertencem por inteiro
          E                        F#
Três corações misturam traição com o desejo

        G#m
Dois olhares partindo meu coração ao meio
      F#
Duas bocas que levam o gosto do meu beijo
                C#m
Dois corpos que eu preciso e me pertencem por inteiro
          E                        F#
Três corações misturam traição com o desejo

( G#m )

[Solo] Am  C  Dm  F

E|------------------------------------------|
B|------------------------------------------|
G|---7/9-9-9--4-5-4-5-4-5-4-5--4h5p4--------|
D|------------------------------------7-----|
A|------------------------------------------|
E|------------------------------------------|

E|------------------------------------------|
B|------------------------------------------|
G|---7/9-9-9--4-5-4-5-4-5-4-5--4h5p4--------|
D|------------------------------------5-----|
A|------------------------------------------|
E|------------------------------------------|

E|------------------------------------------|
B|------------------------------------------|
G|---7/9-9-9--5-7-5-7-5-7-5-7--7/9--7-------|
D|------------------------------------------|
A|------------------------------------------|
E|------------------------------------------|

E|------------------------------------------|
B|------------------------------------------|
G|---7/9-9-9--4-5-4-5~----------------------|
D|------------------------------------------|
A|------------------------------------------|
E|------------------------------------------|

[Pré-Refrão]

F                      G                     Am        G
 Nesse segredo quanto mais eu penso eu fico louco, louco
         F                    E7
Eu tenho água, mas busco por fogo

[Refrão]

        Am
Dois olhares partindo meu coração ao meio
      G
Duas bocas que levam o gosto do meu beijo
                Dm
Dois corpos que eu preciso e me pertencem por inteiro
          F                        G
Três corações misturam traição com o desejo

        Am
Dois olhares partindo meu coração ao meio
      G
Duas bocas que levam o gosto do meu beijo
                Dm
Dois corpos que eu preciso e me pertencem por inteiro
          F                        G
Três corações misturam traição com o desejo

        A#m
Dois olhares partindo meu coração ao meio
      G#
Duas bocas que levam o gosto do meu beijo
                D#m
Dois corpos que eu preciso e me pertencem por inteiro
          F#                       G#
Três corações misturam traição com o desejo

( A#m )

Clipes

Cifra Club Pro

Aproveite o Cifra Club com benefícios exclusivos e sem anúncios
Cifra Club Pro
Aproveite o Cifra Club com benefícios exclusivos e sem anúncios