Antissocial

Froid

Abm7
1234
4X444X
B
234
X24442
Bb
234
X13331
Ebm
1234
XX1342
Ebm7/C#
234
968676
Ebm7M/D
1234
X5433X
Tom: G
Intro 2X:


E|-------------------13-----------
B|-------------11-----------------
G|--10--11-----------------10--11-
D|--------------------------------
A|--------------------------------
E|--------------------------------

E|-------14--------------------13---
B|--11--------------------11--------
G|--------------10--11--------------
D|----------------------------------
A|----------------------------------
E|----------------------------------

E|------------------11--| 
B|-------------11-------| 
G|--------11------------| 
D|----13----------------| 
A|----------------------| 
E|----------------------| 


       Ebm
Vou tentar, sacou? Preciso dar um 
jeito
      Ebm7M/D
Eu preciso dormir, meus olhos nem 
veem direito
    Ebm7/C#
Amanhã acordo cedo, 3:07 dá medo
     Ebm6/C
Resolvi fumar mais um ouvindo Tyler,
 The Creator
        Ebm
Tô mais antissocial que aquele nerd 
zoado
    Ebm7M/D
Evitando contato, ao menos eu não tô
 gripado
       Ebm7/C#
Eu não sei mais no que estão 
interessados
                 Ebm6/C
e pra evitar que puxem vou cantar 
com a mão no saco
               Ebm
Juro que vou sentir vocês ardendo a 
orelha
                   Ebm7M/D
Mas você nem é tão homem pra cantar 
o que der na telha
               Ebm7/C#
Você é só mais um que vai comer o 
que tá na grelha
Ebm6/C Ou você já se esqueceu a cor dessa maldita ovelha B É a dor na minha voz né? O que cês chamam de flow Ebm Então deixa eu vender minha dor Me chama de brow Abm7 O que você vai ser? A diferença é que eu sou Bb E porque você se irrita toda vez que eu marco um gol? Ebm Isolado e livre, não tem ninguém me marcando Ebm7M/D Se não tão querendo grana então porque tão jogando? Ebm7/C# Veja só meu quarto como tá desarrumado Ebm6/C Então imagina a mente a confusão que tem rolado Ebm a mãe dos meus amigos sempre olham diferente Ebm7M/D Se der certo no futuro eu tive certo no presente Ebm7/C# Alguém deve desculpas ao rebelde incoerente Ebm6/C Aliás, sempre gostei de ser chamado de pra frente Ebm Minha mãe tinha 17, devia ter abortado Ebm7M/D Ao invés disso ela foi forte isso deve ter me inspirado Ebm7/C# Antes de tudo acontecer mano, eu já tinha pirado Ebm6/C Então para de dar conselho, eu não escuto, eu to virado B Eu sou primo mais velho eu sempre fui um verme Ebm e ninguém é tão legal quanto meu primo Guilherme Abm7 Então perceba a lucidez na qual arranco a minha pele Bb Outra vez pra bom entendedor, qualquer história serve
Composição: FroidColaboração e revisão: Ulysses Verza

Utilizamos cookies para personalizar sua experiência. Ao acessar o site, você concorda com a nossa Política de Privacidade.