Debate Sobre a Erva

Froid

Tom: G
Intro (piano):


E|--------------------------------
B|--2-----2------------2-----2----
G|--2-----2------------2-----2----
D|--2-----4------------2-----4----
A|--------------------------------
E|--------------------------------

E|---------------------------------
B|------------------------2--------
G|----------------2----------------
D|--------4------------------------
A|---------------------------------
E|---------------------------------

E|----------------------------| 
B|5----------------------|      
G|------------------------|     
D|------------------------|     
A|---------------------------|  
E|----------------------------| 



E|--------------------------------
B|--------------------2--------5--
G|-----------2--------------------
D|---4----------------------------
A|--------------------------------
E|--------------------------------



E|--------------------------------
B|--2-----2------------2-----2----
G|--2-----2------------2-----2----
D|--2-----4------------2-----4----
A|--------------------------------
E|--------------------------------

E|----------------------------------
B|-------------------2-------5------
G|-----------2----------------------
D|----------------------------------
A|----------------------------------
E|----------------------------------

E|---------------------------| 
B|-------------2----5--|       
G|-----------------------|     
D|--------4--------------|     
A|---------------------------| 
E|---------------------------| 



*** A primeira parte é quase igual a
 intro, com uma pequena alteração***
3x

E|--------------------------------
B|--2-----2------------2-----2----
G|--2-----2------------2-----2----
D|--2-----4------------2-----4----
A|--------------------------------
E|--------------------------------

E|----------------------------------
B|-------------2-----5--------------
G|--------2-------------------------
D|----------------------------------
A|----------------------------------
E|----------------------------------

E|---------------------------| 
B|----2-----5----------|       
G|2---------------------|      
D|-----------------------|     
A|--------------------------|  
E|---------------------------| 


A proibição é um saco então
Drogas no saco e saco de drogas no 
saco e drogas no saco de pão

Drogas a vácuo e drogas na cara do 
século
Debaixo da barba do cego e na ponta 
do dedo da mão

Eu não!

Sou um exemplo
Eu deixo sequelas no feto
Eu misturo maconha com sexo
É um fato que aumenta o tesão
Eu confesso armas não matam pessoas
Pessoas machucam pessoas por drogas Drogas machucam pessoas só por diversão Algumas tem o fetish é o líbido Quero uma mulher sexy e esperta igual a senhora smith Com o hype da rihana Não o da giseli bundchen Maconha é um filme louco como "os outros" de nicole kidman ***Aqui também tem uma pequena alteração na tab*** E|-------------------------------- B|--2-----2------------2-----2---- G|--2-----2------------2-----2---- D|--2-----4------------2-----4---- A|-------------------------------- E|-------------------------------- E|---------------------------------- B|---------------------------------- G|-------2-----------------2-------- D|-------2------4----------2------4- A|-------4------4----------4------4- E|--------------2-----------------2- Eu sou um hipocrita odeio o pó que ta No resto das notas pras crianças a escola dá Bem mais opções que sua sacola dá E ai que tá E quem nao tem escolha sabe bem aonde essa rua dá ***Quando ele termina a palavra "dá", entra essa outra tab*** E|------------------------------- B|------------------------------- G|------------------------------- D|-------------------2----------- A|-------0----4------------------ E|---2--------------------------- E|---------------------------------- B|---------------------------------- G|--------------------------2------- D|-----------------2--------2------- A|----0----4----------------4------- E|2--------------------------------- ------------------------------| ------------------------------| ------------2-----------| 4-----------2-----4------| 4-----------4-----4------| 2-----------------2-----| ***Aqui ele segue a tab abaixo, até terminar*** E|-------------------------------- B|--2-----2------------2-----2---- G|--2-----2------------2-----2---- D|--2-----4------------2-----4---- A|-------------------------------- E|-------------------------------- E|--------------------------------- B|------------------------2-------- G|----------------2---------------- D|--------4------------------------ A|--------------------------------- E|--------------------------------- E|----------------------------| B|5----------------------| G|------------------------| D|------------------------| A|---------------------------| E|----------------------------| E|-------------------------------- B|--------------------2--------5-- G|-----------2-------------------- D|---4---------------------------- A|-------------------------------- E|-------------------------------- O meu pai louco com os erros de loco abreu, emerson silva na moral vai tomar no seu A cerveja que prometeu te acalmar Quem sou eu pra julgar meu véio aposentado Hoje pai sou eu Então filha Te botei em um colégio de família Daqueles que só burguês pisa Quando eu apresentei na reunião dos Pais quis me aproximar Mas acho que cavei sua armadilha, arapuca Sabe a sua melhor amiga duda? Não cola em casa e é toda minha culpa Não autorizado pelo pai One more time Via ligação da secretaria de sua labuta! Pai, tô vendo minhas escolhas de adolescente Refletir em gente inocente com os Dente de leite Proibição que cega a mente de quem segue a mídia E depois de velho tenho que fazer média?
Composição: Froid / Pedro QualyColaboração e revisão: HTemps gamingUlysses Verza

Utilizamos cookies para personalizar sua experiência. Ao acessar o site, você concorda com a nossa Política de Privacidade.