busca

Frentista

Gabriel Gava

Tom: F (forma dos acordes no tom de D) Capotraste na 3ª casa
[Intro] D  Em  G

   D                            Em                  G
E|-----------------5----------------------------------|
B|-5/7-7-5-5h7-7-7---7\5/7\-3---7/8-8-8-7-7h8-8-8-8---|
G|--------------------------------------------------7-|
D|----------------------------------------------------|
A|----------------------------------------------------|
E|----------------------------------------------------|

[Primeira Parte]

 D                                                A
Sei que eu tô parado nesse posto mais de uma hora
                                             Bm
Minha atitude é suspeita mais me escuta agora
É que eu marquei com ela aqui
  G                           Gm                  D   
Guenta mais um pouco que ela deve estar chegando aí  

[Pré-Refrão]

E|----------|
B|---3-2----|
G|-2-----4--|
D|----------|
A|----------|
E|----------|

          Em                                         
Pensando bem
                    D   G
To achando que ela nem vem
                            D
E eu só tenho essa nota de 100
                                 A
Tudo que eu tinha pra gastar com ela

[Refrão]

          D
Aooo frentista
                                 A
Esse 100 conto eu vou gastar com álcool
                                 Bm
Me tira da reserva põe só 10 no carro
                                  G
Os outros noventa deixa pra eu beber 
Até ela aparecer

          D
Aooo frentista
                                 A
Esse 100 conto eu vou gastar com álcool
                                 Bm
Me tira da reserva põe só 10 no carro
                                  G
Os outros noventa deixa pra eu beber 
Até ela aparecer

          D
Aooo frentista

[Solo] D  A  Bm  G

Parte 1 de 2

E|----------------------------------------------------|
B|-1/3~--3-3-3-3-3-3-3-5/7-5~--3/5-5-5-5-5-5-5-7/8-7--|
G|----------------------------------------------------|
D|----------------------------------------------------|
A|----------------------------------------------------|
E|----------------------------------------------------|

Parte 2 de 2

E|----------------------------------------------------|
B|-5h7~--5h7~--5-5h7~--7-8~--7-8~--8\3~---------------|
G|----------------------------------------------------|
D|----------------------------------------------------|
A|----------------------------------------------------|
E|----------------------------------------------------|

[Pré-Refrão]

E|-3-2-------|
B|-----3-3/5-|
G|-----------|
D|-----------|
A|-----------|
E|-----------|

          Em                                         
Pensando bem
                    D   G
To achando que ela nem vem
                            D
E eu só tenho essa nota de 100
                                 A
Tudo que eu tinha pra gastar com ela

[Refrão]

          D
Aooo frentista
                                 A
Esse 100 conto eu vou gastar com álcool
                                 Bm
Me tira da reserva põe só 10 no carro
                                  G
Os outros noventa deixa pra eu beber 
Até ela aparecer

          D
Aooo frentista
                                 A
Esse 100 conto eu vou gastar com álcool
                                 Bm
Me tira da reserva põe só 10 no carro
                                  G
Os outros noventa deixa pra eu beber 
Até ela aparecer

          D
Aooo frentista
                                    
[Final] D  A  Bm  G  D

Parte 1 de 2

E|----------------------------------------------------|
B|-1/3~--3-3-3-3-3-3-3-5h7-5~--3/5-5-5-5-5-5-5-7/8-7--|
G|----------------------------------------------------|
D|----------------------------------------------------|
A|----------------------------------------------------|
E|----------------------------------------------------|

Parte 2 de 2

E|----------------------------------------------------|
B|-5h7~--5h7~--5-5h7~--7-8~--7-8~--7-8-7-5------------|
G|-----------------------------------------/4-2-------|
D|----------------------------------------------------|
A|----------------------------------------------------|
E|----------------------------------------------------|

Clipes

Cifra Club Pro

Aproveite o Cifra Club com benefícios exclusivos e sem anúncios
Cifra Club Pro
Aproveite o Cifra Club com benefícios exclusivos e sem anúncios