Frentista

Gabriel Gava

A
123
X02220
Bm
234
X24432
D
123
XX0232
Em
12
022000
G
123
320003
Gm
34
355333
Tom: G
[Intro] D  Em  G

#1t1#   D                            Em                  G
#1t2#E|-----------------5----------------------------------|
B|-5/7-7-5-5h7-7-7---7\5/7\-3---7/8-8-8-7-7h8-8-8-8---|
G|--------------------------------------------------7-|
D|----------------------------------------------------|
A|----------------------------------------------------|
E|----------------------------------------------------|#/1t2##/1t1#

[Primeira Parte]

 D                                                A
Sei que eu tô parado nesse posto mais de uma hora
                                             Bm
Minha atitude é suspeita mais me escuta agora
É que eu marquei com ela aqui
  G                           Gm                  D   
Guenta mais um pouco que ela deve estar chegando aí  

[Pré-Refrão]

#2t1##2t2#E|----------|
B|---3-2----|
G|-2-----4--|
D|----------|
A|----------|
E|----------|#/2t2##/2t1#

          Em                                         
Pensando bem
                    D   G
To achando que ela nem vem
                            D
E eu só tenho essa nota de 100
                                 A
Tudo que eu tinha pra gastar com ela

[Refrão]

          D
Aooo frentista
                                 A
Esse 100 conto eu vou gastar com álcool
                                 Bm
Me tira da reserva põe só 10 no carro
                                  G
Os outros noventa deixa pra eu beber 
Até ela aparecer

          D
Aooo frentista
                                 A
Esse 100 conto eu vou gastar com álcool
                                 Bm
Me tira da reserva põe só 10 no carro
                                  G
Os outros noventa deixa pra eu beber 
Até ela aparecer

          D
Aooo frentista

[Solo] D  A  Bm  G

Parte 1 de 2

#3t1##3t2#E|----------------------------------------------------|
B|-1/3~--3-3-3-3-3-3-3-5/7-5~--3/5-5-5-5-5-5-5-7/8-7--|
G|----------------------------------------------------|
D|----------------------------------------------------|
A|----------------------------------------------------|
E|----------------------------------------------------|#/3t2##/3t1#

Parte 2 de 2

#4t1##4t2#E|----------------------------------------------------|
B|-5h7~--5h7~--5-5h7~--7-8~--7-8~--8\3~---------------|
G|----------------------------------------------------|
D|----------------------------------------------------|
A|----------------------------------------------------|
E|----------------------------------------------------|#/4t2##/4t1#

[Pré-Refrão]

#5t1##5t2#E|-3-2-------|
B|-----3-3/5-|
G|-----------|
D|-----------|
A|-----------|
E|-----------|#/5t2##/5t1#

          Em                                         
Pensando bem
                    D   G
To achando que ela nem vem
                            D
E eu só tenho essa nota de 100
                                 A
Tudo que eu tinha pra gastar com ela

[Refrão]

          D
Aooo frentista
                                 A
Esse 100 conto eu vou gastar com álcool
                                 Bm
Me tira da reserva põe só 10 no carro
                                  G
Os outros noventa deixa pra eu beber 
Até ela aparecer

          D
Aooo frentista
                                 A
Esse 100 conto eu vou gastar com álcool
                                 Bm
Me tira da reserva põe só 10 no carro
                                  G
Os outros noventa deixa pra eu beber 
Até ela aparecer

          D
Aooo frentista
                                    
[Final] D  A  Bm  G  D

Parte 1 de 2

#6t1##6t2#E|----------------------------------------------------|
B|-1/3~--3-3-3-3-3-3-3-5h7-5~--3/5-5-5-5-5-5-5-7/8-7--|
G|----------------------------------------------------|
D|----------------------------------------------------|
A|----------------------------------------------------|
E|----------------------------------------------------|#/6t2##/6t1#

Parte 2 de 2

#7t1##7t2#E|----------------------------------------------------|
B|-5h7~--5h7~--5-5h7~--7-8~--7-8~--7-8-7-5------------|
G|-----------------------------------------/4-2-------|
D|----------------------------------------------------|
A|----------------------------------------------------|
E|----------------------------------------------------|#/7t2##/7t1#
Composição: Elias Mafra / Fabricio / Geovany Reis / Michel AlvesColaboração e revisão: Lucas KappaunJuniior Santos