Linhas Tortas

Gabriel O Pensador

Tom: G

E|--------7-----5-----3---------
B|----8-----7----5--------4-----
G|------------------------------
D|------------------------------
A|------------------------------
E|------------------------------

E|-------------------------------------------------------3--------------3-|  
B|Em--------------------------------------------0------------0------------|  
G|---------2---5--2--4------2--4--2-----------------0------------0--------|  
D|----------------------------------------2-------------------------------|  
A|------------------------------------------------------------------------|  
E|------------------------------------------------------------------------|  


E|-7--7--5--5--3--3--3--3--------- B|-0--0--7--7--5--5--4--4--------- G|-------------------------------- D|-------------------------------- A|-------------------------------- E|-------------------------------- E|--------------------------------- B|---------0----------0------0----- G|-----------4----------2---------- D|--------5---------4-----------2-- A|--------------------------------- E|--------------------------------- E|--------------------------------------| B|--------------------------------------| G|0-------------------------------------| D|--------------------------------------| A|--------------------------------------| E|--------------------------------------| E os acordes de base são Em e Bm.
Composição: André GomesColaboração e revisão: Gabriel Vizane