O Doutor e o Caipira

Goiano e Paranaense

Bb
234
X13331
Bb7
34
X13131
Cm
234
X35543
Eb
234
X65343
F
234
133211
Gm
34
355333
Tom: G
[Intro] Bb  Eb  Bb  F  Bb  F  Bb

[Solo de Viola]


E|--4/11-11-11-11-11--09--4------
B|--5/12-12-12-12-12--10--5------
G|-------------------------------
E|-------------------------------
B|-------------------------------

E|4/6-6-6-6-6--4--2----------------------------------------| 
B|5/7-7-7-7-7--5--4----------------------------------------| 
G|---------------------------------3--2--------------------| 
E|------------------------------2--------4--2-----0--6-----| 
B|------------------------0--4-----------------4-----------| 



E|--------------------------------
B|--------------------------------
G|---------------------5--7-------
E|--2/6-6-6-6-------6-----7-------
B|----------------7---------------

E|-11--12--14\0------| 
B|-12--14--16\0------| 
G|-------------------| 
E|-------------------| 
B|-------------------| 


         Bb            Gm    
Eu dou motivo pra me chamar de 
      Cm
caipira
          F                      Bb
Mas continuo lhe tratando de senhor
Eu não me zango, pois não disse uma 
    Cm
mentira
          F          Eb          Bb
Pelo contrário isso até me da valor
                                 Cm
Sua infância foi lições de faculdade
         F                     Bb
Na realidade hoje é grande doutor
           Bb7                  
Não tive estudo minha escola foi 
    Eb
trabalho
      F                        Bb
Desbravando meu sertão no interior

(Solo Viola)

Bb Gm Foi importante eu ter feito essa Cm viagem F Bb Pois conheci essa frondosa capital Estou surpreso vendo tanta Cm aparelhagem F Eb Bb Para o senhor isso tudo é normal Sou o paciente que o destino lhe Cm oferece F Bb Não me conhece como um profissional Bb7 Eb Lá onde eu moro o senhor se sentiria F Bb Como eu me sinto aqui nesse hospital Bb Gm Lá eu domino aquele incêndio Cm alastrado F Que sendo um raio deixa fogo no Bb espigão Cm Se der um golpe em um jatobá airado F Eb Eu sei o lado que a árvore cai no Bb chão Sou especialista em mata-burros e Cm porteiras F Bb Sei a madeira que se usa pro mourão Bb7 Vamos comigo ver meu mundo ao céu Eb aberto F Onde o trabalho também é uma Bb operação Bb Gm Todas as vezes que me chamam de Cm caipira F Bb É um carinho que recebo de alguém Cm É uma prova que a pessoa me admira F Eb E nem calcula o prazer que agente Bb tem Doutor agora nos já somos bons Cm amigos F Bb Vamos comigo conhecer o meu além Bb7 Eb Para dizer que sou caipira na cidade F Mas lá no mato eu sou um doutor Bb F Bb também
Composição: Geraldinho / GoianoColaboração e revisão: Hugo Monteiro13Ademar AfonsoGildo ReisAlexandre Matavelie mais 3