busca

Sede de Mudança

Goiano e Paranaense

Tom: D
D|-----------------------------------------------------------------------------|
A|----------0------------------0------------------0------------------0---------|
G|--5/6-6-6---5--------3/5-5-5---3--------1/3-3-3---1-0------------------------|
D|--------------7-5----------------5-4------------------2----2/5-5-5---4-2-0---|
A|-----------------------------------------------------------------------------|

D|--------------------------------------------|
A|----------0---------------------------------|
G|--5/8-8-8---7-8-8/10----7-------------------|
D|--------------------------9-7-9-7-----------|
A|----------------------------------10-9-7-5--|

( D )

 D7                                     G 
O futuro do meu povo está no descontentamento
                    A7                     D 
Ganha dez e gasta vinte, não existe entendimento
         D
Notícia ruim vai depressa e a boa num passo lento
     E           D                      A7
Os homens lá do poder deixa meu povão sofrer
                  D
Na lama do esquecimento

 D7                                     G 
Quem vive de um salário não pode ter alegria
                A7                    D 
O povo parece escravo dentro da democracia
    D
Promessas de candidato perderam a simpatia
    E           D                      A7   
Com a sede de mudança quem vota tem esperança
                  D 
Mas se afoga na agonia

 D7                                   G 
Eu não vejo estiagem neste forte temporal
             A7                      D 
Vejo a maracutaia de quem jurou ser leal
     D
Fizeram até um convite, eu nunca vi nada igual
    E              D                      A7 
Chegamos ao fim do mapa, convidaram até o Papa
                  D 
Pra pular no carnaval

 D7                                 G 
O herói trabalhador é o esteio da família
                  A7                 D 
É o sustento da nação, deste país maravilha
       D  
No progresso desta pátria ele é a estrela que brilha
        E             D                      A7 
Sou um porta-voz cantador, pra voz do trabalhador
                 D 
Chegar até a Brasília

Clipes

Cifra Club Pro

Aproveite o Cifra Club com benefícios exclusivos e sem anúncios
Cifra Club Pro
Aproveite o Cifra Club com benefícios exclusivos e sem anúncios