busca

Terceira Perna

Goiano e Paranaense

Tom: E
E|------------------------------------------------------------|
B|----0-------0---------0-------0---------0-------0-----------|
G|--8---7-------------7---5-------------5---3-----------5-3---|
E|--------9-7---5-----------7-5---4-----------5-4---2-0-------|
B|----------------7-----------------5-------------------------|

E|---------------------------------------------------------12-|
B|----0-------0---------0-------0---------0-------0--------12-|
G|--8---7-------------7---5-------------5---3-----------5--12-|
E|--------9-7---5-----------7-5---4-----------5-4---2-0----12-|
B|----------------7-----------------5----------------------12-|

 E                                        B7                E  B7 E  
Fui pra São Paulo, fui de cavalo num só embalo cheguei com fé 
                                        B7              E  B7 E 
Pra me alegrar eu fui passear resolvi parar na Praça da Sé 
           B7 
Estava solteiro o dia inteiro e num desespero achei uma mulher 
                             E                B7             E
Pra confirmação eu passei a mão e a terceira perna não tinha pé

 E                                      B7             E  B7 E  
Larguei o sujeito ali sozinho e sai quietinho sem direção 
                                            B7                 E  B7 E 
Não me conformei e até me falei eu afogo o ganso é lá na São João
              B7 
Eu cheguei contente e bem sorridente a frente a frente de um mulherão 
                         E              B7             E
Ela foi falando naquela hora você dá o fora eu sou sapatão

 E                                        B7                   E  B7 E  
Uma outra moça eu lhe dei a mão e por decisão veio o corpo inteiro
                                             B7              E  B7 E 
Ela se alegrou quando me abraçou pois o pingolim acordou ligeiro
             B7 
Me senti no céu pra esse papel mas lá no motel eu fiquei cabreiro
                           E           B7                 E
Acordei sem roupa, sem perereca, sem cueca e sem meu dinheiro

Clipes

Cifra Club Pro

Aproveite o Cifra Club com benefícios exclusivos e sem anúncios
Cifra Club Pro
Aproveite o Cifra Club com benefícios exclusivos e sem anúncios