busca

Vida de Boiadeiro

Goiano e Paranaense

Tom: C
D |---------7-1-5-3----7-5-3-----------7--10-13-12--12-10-12-13-13--------------12-10-----
A |---------8-3-6-5----8-6-5-----------8--12-15-13-----------------12-10-----12-------13--
F#|--4-3-1----------------------4-3-1------------------------------------11---------------
D |---------------------------------------------------------------------------------------
A |---------------------------------------------------------------------------------------

 C                    F         C
Igual fumaça das queimadas de agosto
                                         G
Que o vento sopra e leva pra qualquer lugar
Eu venho vindo de outras terras bem distantes
                      F         C
Nesse tordilho eu acabei de chegar.
                    F           C
A minha vida é uma estrada boiadeira
                     C7              F
Muita poeira tenho sempre que enfrentar
                    G           C
Toco berrante conduzindo uma boiada
                              G
Mas a saudade é uma espora afiada
            F           G            C
Que em meu peito vive sempre a machucar

 G                         C
Boi... vai mugindo pela estrada
                  G                         C
Que bonito essa boiada passo lento no estradão
 G            F       G         C
Boi... vamos nessa estrada adiante
  C7                    F    G                    C
Sobre o toque de um berrante nas quebradas do sertão

D |---------7-1-5-3----7-5-3-----------7--10-13-12--12-10-12-13-13--------------12-10-----
A |---------8-3-6-5----8-6-5-----------8--12-15-13-----------------12-10-----12-------13--
F#|--4-3-1----------------------4-3-1------------------------------------11---------------
D |---------------------------------------------------------------------------------------
A |---------------------------------------------------------------------------------------

 C                    F          C
Se a minha sorte descambar na sertania
                                  G
Terei saudade dos meus tempos de peão
Posso dizer que é grande o privilégio
                      F           C
Eu fazer parte da história do sertão
                     F         C
Comendo arroz no sistema carreteiro
                C7              F
Na velha guampa bebo água do grotão
                  G           C
Se por acaso estropiar o meu cavalo
                                  G
E o destino conseguir me dar um pialo
          F           G           C
Eu vou embora mas cumpri minha missão

 G                         C
Boi... vai mugindo pela estrada
                  G                         C
Que bonito essa boiada passo lento no estradão
 G            F       G         C
Boi... vamos nessa estrada adiante
  C7                    F    G                    C
Sobre o toque de um berrante nas quebradas do sertão

Clipes

Cifra Club Pro

Aproveite o Cifra Club com benefícios exclusivos e sem anúncios
Cifra Club Pro
Aproveite o Cifra Club com benefícios exclusivos e sem anúncios