busca

Always On The Run

Guns N' Roses

Tom: E
(verso - riff principal)
|--------------------------------------------------------------------|
|--------------------------------------------------------------------|
|--------------------------------------------------------------------|
|---------------------5p0--2---------------------0------------0h2----|
|-----7--5\4---5-------------------7--5\4---5-------2p0--------------|
|--0---------0-----0------------0---------0--------------3p0---------|

|-------------------------------------------------------11/12-12-12--|
|-------------------------------------------------------11/12-12-12--|
|-------------------------------------------------------11/12-12-12--|
|--x-x-x-x-x-x-x-x-x---x-x---x-x----x-x-x-x-x-x-x-x-x----------------|
|--x-x-5-x-7-x-x-x-x---x-5---x-x----x-x-5-x-7-x-x-x-x----------------|
|--x-x-x-x-x-x-5-x-7---x-x---x-5h7--x-x-x-x-x-x-5-x-7----------------|

|--------------------------------------------------------------------|
|--------------------------------------------------------------------|
|--------------------------------------------------------------------|
|---------------------7b8r7~~-5---------------------0------------0h2-|
|-----7--5\4---5----------------7-----7--5\4---5-------2p0-----------|
|--0---------0-----0---------------0---------0--------------3p0------|

(refrão)
G5      A5            
But I'm always on the run (always on the run)

(solo)
    A5
|------------------------------------------------------------0-0-0-0-0-0-0-|
|--------------------------------------------------------------------------|
|-------------------(0)-5-(0)-7-(0)-7b9-5-7-(0)-5-(0)-7b9-7----------------|
|-----------5-(0)-7--------------------------------------------------------|
|-----4-5-7----------------------------------------------------------------|
|--/5----------------------------------------------------------------------|

|--------------------------------------------------------------------------|
|--15b17~~~--17p15-----------------------------------------14-17----14-----|
|------------------16--16b19--16-15-14--15p14p12-----14b16.......16....r14-|
|------------------------------------------------14------------------------|
|--------------------------------------------------------------------------|
|--------------------------------------------------------------------------|

                                B5
|--------------------------------------------------------------------------|
|--------12------------------------------14h17p14--------------------------|
|--12----------12-14-12---------14b16~~~----------------------14b16r15b16~~|
|-----12----14----------12-(10)-------------------12b13r12-10--------------|
|--------------------------------------------------------------------------|
|--------------------------------------------------------------------------|
                                           riff
|----------------------------------------12-15~---12-------15~---------15~~|
|------17b19r17-16-17-16-17/19~~~\---/12-------------15p12-------15p12-----|
|--------------------------------------------------------------------------|
|--12----------------------------------------------------------------------|
|--------------------------------------------------------------------------|
|--------------------------------------------------------------------------|

|--12-------15-------------------------------------------------------------|
|-----15p12------15p14p12--15----------------------------------------------|
|-----------------------------16p15p14-16p15p14\12--15p14p12---------------|
|------------------------------------------------------------14p12---------|
|------------------------------------------------------------------14p13p12|
|--------------------------------------------------------------------------|

|----------------------|
|----------------------|
|-------------12-12\---|
|-------------12-12\---|
|----------------------|
|--15p12~~~~\----------|

Clipes