busca

Attitude

Guns N' Roses

Tom: D
Obs.: Afinar meio tom abaixo / Tune a half step down

INTRO: D

D     G    D                G
Attitude, 'tsa fuckin' attitude,
D                              G
I can't believe what ya say to me,
D                  G
You got some attitude

F#
Inside that bitter brain
G
There's gotta be a whore
F#
If you don't shut your mouth
G                      A
You're gonna feel the floor

Yeah!

D                A             D            A
Attitude, what you got's a fuckin' attitude.
Attitude is what you got's a fuckin' attitude.

Yeah, right.

F#
Inside that bitter brain,
G
There's gotta be a whore
F#
If you don't shut your mouth
G
You're gonna feel a mother fuckin'


SOLO: G A (D A) 3x

E|----------------------------------------------
B|-10---10-----13---13-----10---10-----13---13-- SOLO ESTA ERRADO(não sou guitarrista solo então
G|-12b¹-12b¹---12b¹-12b¹---12b¹-12b¹---12b¹-12b¹                  não posso ajudar :/)
D|----------------------------------------------
A|----------------------------------------------
E|----------------------------------------------

-13-10-------------------------------------------------------------------------------
-------13-10-------------------------------------------------------------------------
--------------12--10--12HAb%-12-10---------------------------------------------------
------------------------------------10p12---------------------------------------10-12b%rv
-----------------------------------------10p12h11-------------10-10-11-11-12-12------
--------------------------------------------------10-10-13-13--------------------------

b¹: bend 1 tom
b%: bend 1/2 tom
HA: harmônico artificial
r: depois do bend retorne a corda à posição inicial
v: vibrato

D      G         D           G
Attitude, 'tsa fuckin' attitude,
D                        G
I can't believe what ya say to me,
            D        G
You got some attitude      2x

Yeah, yeah, yeah!

Clipes

Cifra Club Pro

Aproveite o Cifra Club com benefícios exclusivos e sem anúncios
7 dias grátis
Cifra Club Pro
Aproveite o Cifra Club com benefícios exclusivos e sem anúncios
7 dias grátis