busca

Black Leather

Guns N' Roses

Tom: Eb (forma dos acordes no tom de E) Afinação: Eb Ab Db Gb Bb Eb
Riff Principal:
Eb|-----------------------------------------------|
Bb|-----------------------------------------------|
Gb|----------------------------------2------------|
Db|-------------------2--------------2------------|
Ab|-------------------0-4--4---------0------------|
Eb|--0---2-2-0-0-2-2----2--2-0-0-2-2--------------|

Eb|-----------------------------------------------|
Bb|-----------------------------------------------|
Gb|---------------------------------2-------------|
Db|------------------2--------------2-------------|
Ab|------------------0-2--2---------0-------------|
Eb|-----2-2-0-0-2-2----4--4-0-0-2-2---------------|

Clipes