Black Leather

Guns N' Roses

Tom: G
#1t1#Riff Principal:
#1t2#Eb|-----------------------------------------------|
Bb|-----------------------------------------------|
Gb|----------------------------------2------------|
Db|-------------------2--------------2------------|
Ab|-------------------0-4--4---------0------------|
Eb|--0---2-2-0-0-2-2----2--2-0-0-2-2--------------|#/1t2##/1t1#

#2t1##2t2#Eb|-----------------------------------------------|
Bb|-----------------------------------------------|
Gb|---------------------------------2-------------|
Db|------------------2--------------2-------------|
Ab|------------------0-2--2---------0-------------|
Eb|-----2-2-0-0-2-2----4--4-0-0-2-2---------------|#/2t2##/2t1#
Composição: Steve JonesColaboração e revisão: john pessoaMarcos Correia