Buick Makane

Guns N' Roses

Tom: G
"BUICK McKANE-(BIG DUMB SEX)" 
De: "GUNS N´ROSES".
"BUICK McKANE" - ORIGINAL DE T-REX (1973).
"BIG DUMB SEX" - ORIGINAL DO SOUNDGARDEN (1989).

Nota:
h = Hammer-on                ^   = Full Bend
p = Pull-off                  ^b  = 1/2 Step Bend
/ = Slide up                  ^qb = 1/4 Step Bend
\ = Slide down              A.H.= Artificial Harmonic 
PM= Palm Mute              N.H.= Natural Harmonic
+ = Wah-Wah open (bass)       x   = Pick Slide
º = Wah-Wah close (treble)
 
 
"BUICK McKANE"
 
#1t1# Gtr.II (Gilby)
#1t2#e|------------|--12------------|--(12)----------|-----------------------|
B|------------|----------------|----------------|-------------------2^qb|
G|------------|----------------|----------------|-------------------2^--|
D|------------|----------------|----------------|-----------------------|
A|------------|----------------|----------------|-----------------------|
E|------------|----------------|----------------|-----------------------|#/1t2##/1t1#
 |              N.H.
 |Gtr.I (Slash)                                  w/Wah as filter
#2t1##2t2#e|------------|----------------|----------------|-----------------------|
B|------------|----------------|----------------|-----------------------|
G|------------|----------------|----------------|-----------------------|
D|------------|----------------|-----------5^qb-|------------5^qb-------|
A|------------|-5-7~~~-5-7~~~--|5-7--5-7-5---7~~|5-7--5-7--5----7-5-----|
E|-------7----|----------------|----------------|--------------------7-5|
         PM.#/2t2##/2t1#
 
 
 
#3t1#  Gtr.II
#3t2#e|----------------|----------------|--------------------|---------------|
B|--(2)------(2)/-|----------------|--------------------|---------------|
G|--(2)-----------|----------------|--------------------|---------------|
D|----------------|----------------|-------------5^qb---|---------------|
A|----------------|-5-7~~~-5-7~~~--|-5-7--5-7--5---7~~~-|--5-7~~~~~~~~~-|
E|----------------|----------------|--------------------|---------------|
 |#/3t2##/3t1#
#4t1# |Gtr.I                                                 Riff A. (Gtr I&II)
#4t2#e|----------------|----------------|-------------------||---------------|
B|----------------|----------------|-------------------||---------------|
G|----------------|----------------|-------------------||---------------|
D|----------------|----------------|-------------5^qb--||---------------|
A|-------------5--|-5-7~~~-5-7~~~--|-5-7--5-7--5---7~~~||--5-7~~--5-7~~-|
E|-(5)-(5)^--/7---|----------------|-------------------||---------------|#/4t2##/4t1#
                                                        Buick,____Buick,
 
 
 
#5t1#  Gtr.II
#5t2#e|-----------------------|--------------------------|-------------------|
B|-----------------------|--------------------------|-------------------|
G|-----------------------|--------------------------|-------------------|
D|-----------------------|--------------------------|-------------------|
A|-----------------------|--------------------------|-----------------5-|
E|-----------------------|-----------------------5^-|-5~~~~~--(5)\-/7---|
 |#/5t2##/5t1#
#6t1# |Gtr.I                                                      (end Riff A)
#6t2#e|-----------------------|--------------------------|-------------------|
B|-----------------------|--------------------------|-------------------|
G|-----------------------|--------------------------|-------------------|
D|--------------5^qb-----|--------------5^qb--------|-------------------|
A|--5-7--5--7-5---7~~~~~-|--5-7--5--7-5---7---5-----|-----------------5-|
E|-----------------------|-----------------------5^-|-5~~~~~--(5)\-/7---|#/6t2##/6t1#
 Buick McKane, will ya?  Buick McKane will_ ya be my  girl?_____Oh, be my
 
 
     with/Riff A (all gtrs.)(1st two bars only)
girl       Ow____________              
 
 
     with/Riff A (2 times) and then play Rhy.Fill 1
Rain-y___________  la-dy,________ queen of the rock will_ ya?
 
Queen of the rock, will__ ya  help__ me  roll?____ Help me
 
 
#7t1#  Rhy. Fill 1
#7t2#e|----------------------------------|------------------------||
B|----------------------------------|------------------------||
G|----------------------------------|------------------------||
D|--------------------5^qb----------|------------------------||
A|-------5-7---5-7--5------7--5-----|--5--------------5------||
E|-------------------------------7--|--3----------/7---------||#/7t2##/7t1#
 
 
 
#8t1#  Gtr.III         *Feedback
#8t2#e|---------------------------|----------------------------------------|
B|---------------------------|----------------------------------------|
G|---------------------------|----------------------------------------|
D|--12h14--12----------------|----------------------------------------|
A|-------------12^*(12)~~~~~-|-12^(12)p11--12p11--10------------------|
E|---------------------------|-----------------------12~~~~~~~~-12-x--|#/8t2##/8t1#
    roll_______________________                          to my 
 
 
 
  w/Wah
    +   º  +  º  + º  +              º  +º  +º +  º
#9t1##9t2#e|--------------------------------|-------------------------|
B|--12^---------------15----------|--14~~~~~~~~-------------|
G|--14^---------------14-14-------|-------------------------|
D|----------------------------14--|-------------------------|
A|--------------------------------|-------------------------|
E|--------------------------------|---------------------x\--|#/9t2##/9t1#
  soul.
 
 
 
  w/Riff A (1st two bars only)                           w/Riff A (2 times)
  *+
#10t1##10t2#e|------------------|------------------------------------||---------------|
B|------------------|----------------8^qb----------------||---------------|
G|------------------|-7--9--7--9--7------9~~~-7----------||---------------|
D|------------------|----------------------------9--5^qb-||---------------|
A|-5--7~~~--5--7~~~-|------------------------------------||--7~~~~~~~~~~~-|
E|------------------|------------------------------------||---------------|#/10t2##/10t1#
  *Leave Wah on as filter                              Slid-er,__ slid-er.
 
 
 
#11t1##11t2#e|--------------------|------------------------|------------------------|
B|--------------------|------------------------|------------------------|
G|--------------------|------------------------|------------------------|
D|--------------------|------------------------|------------------------|
A|--------------------|------------------------|-------------------5----|
E|--------------------|------------------5^--x-|--5~~~~~~~~~~~~/7-------|#/11t2##/11t1#
   You´re just a sex-u-al glid-er (x2)    Be me  plane,__oh, in the rain,
 
 
 
#12t1#  w/Riff A (Gtr.III)    +  º + º  +  º  + º      +  º  +   º  +   º  + º
#12t2#e|---------|---------|------------------------|-------------------------|
B|---------|---------|--8----8p7---------(7)\-|--2^b---2------2------2--|
G|---------|---------|--9----9p7---------(7)\-|--2^----2------2------2--|
D|---------|---------|------------------------|-------------------------|
A|---------|---------|------------------------|-------------------------|
E|---------|---------|------------------------|-------------------------|#/12t2##/12t1#
  ____  uh.
 
 
 
#13t1#    + º  + º  + º *+
#13t2#e|-------------------------------|------------------|-------------------|
B|---------------------------7^b-|-(7)~~~~~~~~~~~~~~|~~~~~~~~~~~~~~~----|
G|--2^--------------2--1--0--7^--|-(7)~~~~~~~~~~~~~~|~~~~~~~~~~~~~~~----|
D|-------------------------------|------------------|-------------------|
A|-------------------------------|------------------|-------------------|
E|-------------------------------|------------------|-------------------|#/13t2##/13t1#
 *Leave wah on as filter
  Bu-ick,_____    Bu-ick,      Buick McKane, will_ya? (x2)     be____my
 
 
 
#14t1#   *Feedback
#14t2#e|---------------|----------------------|-------------------------------|
B|-*(7)----------|----------------------|-------------------------------|
G|---------------|----------------------|--------------------12^qb------|
D|---------------|--12-14~~~~~12-14~~~~-|-12-14---12-14---12----14~~~~~-|
A|---------------|----------------------|-------------------------------|
E|------------x\-|----------------------|-------------------------------|#/14t2##/14t1#
   girl?___ Be my   girl________________________________________________
 
 
 
#15t1##15t2#e|------------------------------|----------------------------------||
B|------------------------------|----------------------------------||
G|------------------------------|-------------------12^qb----------||
D|---12-14~~~~~~~-12-14~~~~~~~--|--12-14--12-14--12-----14~~~~~~~--||
A|------------------------------|----------------------------------||
E|------------------------------|----------------------------------||#/15t2##/15t1#
  _______________________________                Ow._________
 
 
 
#16t1#  w/Riff A (1st two bars only)(2 times)
#16t2#e|----------------------------------------------------------|
B|----------------------------------------------------------|
G|----------------12--(12)^qb-x-------------12--(12)^qb-x---|
D|--12--14-14-14--------------x--12-14---14-------------x---|
A|----------------------------------------------------------|
E|----------------------------------------------------------|#/16t2##/16t1#
 
 
 
#17t1##17t2#e|----------------------------------------------------------------------|
B|----------------------------------------------------------------------|
G|--x-------x-14p12--12h14--12--14--14^b--12-------14--12^b-------------|
D|--x-12-14-x--------------------------------14-14--------14--12h14-----|
A|----------------------------------------------------------------------|
E|----------------------------------------------------------------------|#/17t2##/17t1#
 
  
 
#18t1##18t2#e|----------------------------------------------------------------------|
B|-----------------12--(12)^qb---------------------12--(12)^qb---12-----|
G|-----------------12--(12)^qb---------------------12--(12)^qb----------|
D|-12--14--14--14--------------14--12--14--14--14-----------------------|
A|----------------------------------------------------------------------|
E|----------------------------------------------------------------------|#/18t2##/18t1#
 
 
 
#19t1#       *Hold Bend *Release Bend     **Exagerated vibrato
#19t2#e|----------12----------------------**^^^^^||^^^^^^^^^^^^^^^^^----------|
B|-------12------------------------15^-----||----(15)-------------------|
G|--14^*-------14-*-12----14-12------------||---------------------------|
D|---------------------14-------14---------||---------------------------|
A|-----------------------------------------||---------------------------|
E|-----------------------------------------||---------------------------|#/19t2##/19t1#
 
 
 
#20t1#  Riff B (Gtrs. I & II)
#20t2#e|-------------------------------------------|
B|-------------------------------------------|
G|-------------------------------------------|
D|------5^qb----------------5^qb-------------|
A|---7------7--5-----7----------7--5------5--|
E|----------------7-------------------7------|#/20t2##/20t1#
 
 
 
#21t1# "BIG DUMB SEX"  w/Riff B (16 TIMES)
#21t2#e|--------------------|--------------------|------------------------15--|
B|--(15)--------------|--------------------|--15^~~~~~~~~~~~~~~~(0)-----|
G|--------------------|--------------------|----------------------------|
D|--------------------|--------------------|----------------------------|
A|--------------------|--------------------|----------------------------|
E|--------------------|--------------------|----------------------------|#/21t2##/21t1#
                Ow,______  ow    Said,____ I_____________know what to do.
 
 
 
#22t1##22t2#e|-(15)-----------------------|-----------------|-----------------------|
B|-------15----15^~~~~~~~-----|-----------------|-----------------------|
G|-------------14^~~~~~~~--14-|-14~~~~~~~~~14^--|--14----13-------------|
D|----------------------------|-----------------|------------14~~~~~~~~-|
A|----------------------------|-----------------|-----------------------|
E|----------------------------|-----------------|-----------------------|#/22t2##/22t1#
             I´m gon-na  fuck,fuck,fuck, fuck you, fuck you I´m saying I_
 
 
 
#23t1#                                             *Semi-harmonic
#23t2#e|-----------------------------------------|----------------------------|
B|--15^--15^b(15)15^-(15)~~~~~~15-(15)p12--|-*17^----17~~~~~~-15--------|
G|-----------------------------------------|----------------------16----|
D|-----------------------------------------|----------------------------|
A|-----------------------------------------|----------------------------|
E|-----------------------------------------|----------------------------|#/23t2##/23t1#
              _________know what   to do._______    I´m gon-na     fuck,
 
 
 
#24t1##24t2#e|--17^----17-17~~~17~~~(17)^--|--17---16~~~~~~~~~~~~~~~~~~~~~~~~-------|
B|-----------------------------|----------17---------17---17---17p15----|
G|-----------------------------|-----------------------------------16---|
D|-----------------------------|----------------------------------------|
A|-----------------------------|----------------------------------------|
E|-----------------------------|----------------------------------------|#/24t2##/24t1#
    fuck, fuck,  fuck you,______________  fuck you,.      I´m say-in, I_
 
 
 
#25t1##25t2#e|-------15-15-----------------------|----------------------------------|
B|-17-15------17-15-17-17-15-15p12---|-12-------------------------------|
G|-------------------------------15^-|--14^b--12--14---12^qb------------|
D|-----------------------------------|----------14--(14)--14-12-14--12--|
A|-----------------------------------|--------------------------------14|
E|-----------------------------------|----------------------------------|#/25t2##/25t1#
_____________________know what  to do,________         I´m gon-na
 
 
 
#26t1##26t2#e|------------------------------------------------------|
B|------------------------------------------------------|
G|------------------------------------------------------|
D|----------------------------------------------12------|
A|------14-13-12h14-12------12^----12--10-12/14------14-|
E|------------------------------------------------------|#/26t2##/26t1#
   fuck,       fuck,       fuck,              fuck  you,___
 
 
**IMPORTANTE: As notas baixas são tocadas pela Gtr. Ritmo(I&II), as 
notas altas são tocadas pela Gtr. Solo(III) - Não são notas duplas ou
acordes ** 
#27t1##27t2#e|---------------------------------------------------------|------------|
B|---------------------------------------------------------|------------|
G|------12^qb------------------------12^qb-----------------|------------|
D|-*14--5-^qb--14--12-----14~~~~~14--5-^qb--14--12------12-|-14~~~(14)\*|
A|-*7----------7---5--14--7~~~~~~7----------7---5---14--5--|-7-~~~(7)-\*|
E|--------------------7-----------------------------7------|------------|#/27t2##/27t1#
          fuck          you,___       fuck        you._ (w/delay repeats)
Composição: Marc BolanColaboração e revisão: