Double Talkin' Jive

Guns N' Roses

A5
12
X022XX
B5
134
X244XX
C5
134
X355XX
D5
134
X577XX
E
123
022100
E5
12
022XXX
F
234
133211
F5
134
133XXX
G
123
320003
G5
134
355XXX
Tom: G
#1t1# A5                        G5              E5           G5
#1t2#--------------------------------------------------------------------
--------------------------------------------------------------------
--------------------------------------------------------------------
-2-------------------------5---------------2------------5-----------
-2-------------------------5---------------2------------5-----------
-0-------------------------3---------------0------------3-----------#/1t2##/1t1#

#2t1# D5     A5     E5                       D5      A5      G5      D5
#2t2#------------------------------------------------------------------------
------------------------------------------------------------------------
-7-------------9------------------------7-----------------------7-------
-7------7------9--------9-9-9-9-9-9-9-9-7-------7-------5-------7-------
-5------7------7------------------------5-------7-------5-------5-------
--------5---------------------------------------5-------3---------------#/2t2##/2t1#

#3t1# E5
#3t2#-----------------------------------------------------------------------
-----------------------------------------------------------------------
-----------------------------------------------------------------------
-----------------------------------------------------------------------
-----------------------------------------------------------------------
-0-3-0--0-3-0--0-3-0--0-3-0--0-3-0--0-3-0--0-3-0--0-3-0--0-3-0--0-3-0--#/3t2##/3t1#

#4t1# E5                                        F5
#4t2#-------------------------------------------------
-------------------------------------------------
-------------------------------------------------
-0h2--0h2-------------------0h2--0h2--0h2--3-----
-0h2--0h2-------------------0h2--0h2--0h2--3-----
---------0-3-0--0-3-0--0-3-0---------------------#/4t2##/4t1#

#5t1# E5                                        F5
#5t2#-------------------------------------------------
-------------------------------------------------
-------------------------------------------------
-0h2--0h2-------------------0h2--0h2--0h2--3-----
-0h2--0h2-------------------0h2--0h2--0h2--3-----
---------0-3-0--0-3-0--0-3-0---------------------#/5t2##/5t1#

#6t1#E5                                         F5
#6t2#-------------------------------------------------
-------------------------------------------------
-------------------------------------------------
-0h2--0h2-------------------0h2--0h2--0h2--3-----
-0h2--0h2-------------------0h2--0h2--0h2--3-----
---------0-3-0--0-3-0--0-3-0---------------------#/6t2##/6t1#

#7t1#E5                                   F5
#7t2#-------------------------------------------
-------------------------------------------
-------------------------------------------
-0h2--0h2-------------------0h2--0h2-3-----
-0h2--0h2-------------------0h2--0h2-3-----
---------0-3-0--0-3-0--0-3-0---------------#/7t2##/7t1#

#8t1# E5
#8t2#-------------------------------------------------------------------------------------
-------------------------------------------------------------------------------------
-------------------------------------------------------------------------------------
-2---2-2--------------2---2-2--------------2---2-2--------------2---2-2--------------
-2---2-2-------2p0----2---2-2-------2p0----2---2-2-------2p0----2---2-2-------2p0----
----0-----0-3p0---3p0----0-----0-3p0---3p0----0-----0-3p0---3p0----0-----0-3p0---3p0-
(2x)#/8t2##/8t1#

#9t1#(verso)
 E5
#9t2#-------------------------------------------
-------------------------------------------
-------------------------------------------
-2---2-2--------------2---2-2--------------
-2---2-2-------2p0----2---2-2-------2p0----
----0-----0-3p0---3p0----0-----0-3p0---3p0- (2x)#/9t2##/9t1#

Found a head and an arm in a garbage can
Don't know I'm here?
Live on the run for oh so long
I gotta go colect.

#10t1#(refrão)
 C5      B5      E5
#10t2#--------------------------------------
--------------------------------------
--------------------------------------
-5-------4-------2---2-2--------------
-3-------2-------2---2-2-------2p0----
--------------------0-----0-3p0---3p0-#/10t2##/10t1#
Double talkin' jive get the money motherfucker
'Cause I got no more patience

#11t1# C5      B5      E5
#11t2#----------------------------------------------------------------------------------------------------
----------------------------------------------------------------------------------------------------
----------------------------------------------------------------------------------------------------
-5-------4-------2---2-2--------------2---2-2--------------2---2-2--------------2---2-2-------------
-3-------2-------2---2-2-------2p0----2---2-2-------2p0----2---2-2-------2p0----2---2-2------2p0----
--------------------0-----0-3p0---3p0----0-----0-3p0---3p0----0-----0-3p0---3p0---------0-3p0---3p0-#/11t2##/11t1#
Double talkin' lies!  No more patience man       you dig what I'm sayin'  oh  fuck!      auuuuuhhh

#12t1#(verso)
 E5
#12t2#-------------------------------------------
-------------------------------------------
-------------------------------------------
-2---2-2--------------2---2-2--------------
-2---2-2-------2p0----2---2-2-------2p0----
----0-----0-3p0---3p0----0-----0-3p0---3p0- (2x)#/12t2##/12t1#

Back in town an' a all new friends
They sayin' how ya been?
Fucked up and outta place
That's how I felt back then.

#13t1#(refrão)
 C5      B5      E5
#13t2#--------------------------------------
--------------------------------------
--------------------------------------
-5-------4-------2---2-2--------------
-3-------2-------2---2-2-------2p0----
--------------------0-----0-3p0---3p0-#/13t2##/13t1#
Double talkin' jive get the money motherfucker
'Cause I got no more patience

#14t1# C5      B5     E5
#14t2#----------------------------------------------------------------------------------------------------
----------------------------------------------------------------------------------------------------
----------------------------------------------------------------------------------------------------
-5-------4------2---2-2--------------2---2-2--------------2---2-2--------------2---2-2--------------
-3-------2------2---2-2-------2p0----2---2-2-------2p0----2---2-2-------2p0----2---2-2-------2p0----
-------------------0-----0-3p0---3p0----0-----0-3p0---3p0----0-----0-3p0---3p0----0-----0-3p0---3p0-#/14t2##/14t1#
Double talkin'- I got {lies}   no more patience man       you dig what the fuching i'm sayin'  oh  fock!

#15t1#(solo)
#15t2#--------------------------------------------------------------------------------
-----------------------------------------------------8-6-5-6/8-6h8p6-5-6p5------
-------------------------4v----7v-----5h7p5-4-5v----5---------------------4-7p4-
-2/3----2/3-5-3-2h3p2-----------------------------------------------------------
---------------------2----------------------------------------------------------
--------------------------------------------------------------------------------#/15t2##/15t1#

#16t1# F                                   E
#16t2#----1-------1-------1-------1-----------0-------0-------0-------0----
---1-1-1---1-1-1---1-1-1---1-----------0-0-0---0-0-0---0-0-0---0-0-0-
--2---2---2---2---2---2---2-----------1---1---1---1---1---1---1---1--
-3-------3-------3-------3-----3/5-3-2-------2-------2-------2-------
---------------------------------------------------------------------
---------------------------------------------------------------------#/16t2##/16t1#

#17t1##17t2#----1-------1-------1-------1----------0-------0----------------------------
---1-1-1---1-1-1---1-1-1---1----------0-0-0---0-0-0-------------------------
--2---2---2---2---2---2---2----------1---1---1---1--------------------------
-3-------3-------3-------3----3/5-3-2-------2--------14-14-15---17-15-14h15-
----------------------------------------------------------------------------
----------------------------------------------------------------------------#/17t2##/17t1#

#18t1##18t2#-0-1-3--0-1-1v------------------------------------------------------------
------------------1-1-1--3-1-0-1-0----------------------------------------
---------------------------------2-2v----2-2/5-4-4-4v---------------------
-------------------------------------------------------2-2-2--2-2-3-3v----
--------------------------------------------------------------------------
--------------------------------------------------------------------------#/18t2##/18t1#

#19t1##19t2#--------------------8-7-5-----------------------
-----------5-6-8---------8-6-5h6p5---6--5h6p5---
------4-5-7-----------------------7-5-----------
-3-5-6------------------------------------------
------------------------------------------------
------------------------------------------------#/19t2##/19t1#

#20t1##20t2#----------------------------------------------------------------------
----------------------------------------------------------------------
-----12p10p9-------12p10p9-------12p12p9-12p10p9-------12p10p9--------
-12p9-------12p10p9-------12p10p9---------------12p10p9-------12p10p9-
----------------------------------------------------------------------
----------------------------------------------------------------------#/20t2##/20t1#

#21t1##21t2#--------------------------------------------------------------------------
--------------------------------------------------------------------------
-12p10p9-12p10p9-------12p10p9-------12p10p9-12p10p9-------12p10p9--------
----------------12p10p9-------12p10p9---------------12p10p9-------12p10p9-
--------------------------------------------------------------------------
--------------------------------------------------------------------------#/21t2##/21t1#

#22t1##22t2#--------------------------------------------------------------10-12-13------
------------------------------------------------------10-12-13--------10----
-12p10p9-12p10p9---------------12p10p9---------9-10-12----------------------
----------------12p10p9-12p10p9---------9-10-12-----------------------------
----------------------------------------------------------------------------
----------------------------------------------------------------------------#/22t2##/22t1#

#23t1##23t2#------10-12-13-12-10--------13--10--------13--10--------13--10---------
-12-13--------------13-12-10--12--13-12-10--12--13-12-10--12--13-12-10-
-----------------------------------------------------------------------
-----------------------------------------------------------------------
-----------------------------------------------------------------------
-----------------------------------------------------------------------#/23t2##/23t1#

#24t1##24t2#-12-9----------------------------------------------------------------------------
-----12-10-9h10p9h10p9-----------------------------------------------------------
----------------------12-10h12p10h12p10-9h10p9h10p9------------------------------
---------------------------------------------------12-10h12p10h12p10-9h10p9h10p9-
---------------------------------------------------------------------------------
---------------------------------------------------------------------------------#/24t2##/24t1#

#25t1# F                                 G F E
#25t2#----1--------1--------1--------1----------0--------0--------0--------0----
---1--1-----1--1-----1--1-----1-------------------------------------------
--2----2---2----2---2----2---2-----------1--1-----1--1-----1--1-----1--1--
-3--------3--------3--------3----3/5-3--2----2---2----2---2----2---2----2-
---------------------------------------2--------2--------2--------2-------
-------------------------------------------------------------------------- (2x)#/25t2##/25t1#

#26t1##26t2#-0-1-3---0-1-1v-----------------------------------------------------------------------------
------------------1-1-1v---1/3-1-0-1-0---------------------------------------------5-6-7v---
--------------------------------------2-2v---2-2/5-4-4-4v-----------------------4-7---------
-----------------------------------------------------------2-2-2--3-3-3v---3-5-6------------
--------------------------------------------------------------------------------------------
--------------------------------------------------------------------------------------------#/26t2##/26t1#
Composição: Alex Van Halen / Alice Cooper / Alison Oliveira / Angry Anderson / Angus Young / Axton / Bon Scott / Brian Johnson / Brian May / C. Hardin / Charles Manson / Chris Cornell / Chris Pittman / Chris Weber / Dallas Royal / David Lee Roth / Devo / DJ Ashba / Doc Neeson / Don Brewer / Durden / Ed Van Halen / Fred McDowell / Freddie Mercury / Gordon Leach / Izzi Stradlin / Izzy StradlinChristopher Garrison Weber / James Brown / Jimmy Webb / John Lennon / John Lennon Adaptado / Joshua Funk & Rob Janas / Larry Blackmon / Led Zeppelin / Malcolm Young / Mic Jagger / Michael Antony / Mick Cocks / N. Petty / Neil Young / Patty Griffin / Paul Mcartney / Paul McCartney / Pete Townshend / Peter Wells / Presley / Ramones / Roger Waters / Rolling Stones / Rose / Scott Weiland / Sergio George / Steve Rothery / Stradlin / Tom Petty / Tomi Jenkins / Tommy Stinson / Zal CleminsonColaboração e revisão: Jefferson Sousa