busca

Duff Solo Tokyo

Guns N' Roses

Gb|-----------------|--------------------- 
Db|--------------3--|-------------2--3--8- 
Ab|-----------------|--------------------- 
Eb|-----3-1-3-------|--3-1-3----0--0--0--- 

Gb|------------------------------- 
Db|--------------0-3-5(5x 0 3 5)-- 
Ab|------------------------------- 
Eb|----3-1-3-1-3------------------ 

Gb|------------------------------------------ 
Ab|---------------5-5-5-5--3-5-5-3----------- 
Db|---------------------------------5-3------ 
Eb|----3-1-3-1-3-------------------------5---

Começo do Groove Com Batera Normal e Slash 
Gb|------------------|-------------------- 
Db|------------------|-------------------- 
Ab|----------------1-|-------------------- 
Eb|----3-1-3-1-3-----|--3-1-3-1-3--4------ 
                                           (2x, Dps Começa/Faz Palhetada Dupla Ateh o Fim) 
Gb|---------------------------------------  
Db|--------------------------------------- 
Ab|-------------1---4---4-4---3--3-3--1--- 
Eb|--3-1-3-1-3----------------------------

Clipes