Dust In The Wind

Guns N' Roses

A
123
X02220
A/G#
1234
4X222X
A7
12
X02020
Bm
234
X24432
C#m
234
X46654
D
123
XX0232
E
123
022100
Eb
234
X65343
F#m
34
244222
F#m/E
1234
XX2222
F#m/Eb
1234
X60675
F#m/F
1234
XX3222
G
123
320003
Tom: G
Guitar Solo (Slash)


#1t1##1t2#|----------------|------------------|-------------|------------------|
|----------------|------------------|-------------|--10---12-10-9-10-|
|----------9-----|-9-----11-11-9----|--11---------|------------------|
|-----9/11---11--|---------------11-|----------11-|------------------|
|----------------|------------------|-------------|------------------|
|----------------|------------------|-------------|------------------|   #/1t2##/1t1#


#2t1##2t2#|-----------------------|--------|------------|----------------------|
|-9h10h9----9-------12--|--------|------------|-------10----12bh10---|
|--------11---11b______-|--11b---|-11bh9------|--9/11----11----------|
|-----------------------|--------|-------11---|----------------------|
|-----------------------|--------|------------|----------------------|
|-----------------------|--------|------------|----------------------|        #/2t2##/2t1#
 
#3t1##3t2#|-------------------|------9-12-----------|-12-----12--------------- |  
|--12--10------9----|--12b------12bh10----|----12b----12bh10---------|
|---------9/11---11-|------------------11-|-------------------11-----|
|-------------------|---------------------|--------------------------|
|-------------------|---------------------|--------------------------|
|-------------------|---------------------|--------------------------|#/3t2##/3t1#

#4t1##4t2#|-12-----12---------|--------12b--|--12b-12b--|--12b-12b--|--12b-12b-| 
|----12b----12b--10-|-----10------|-----------|-----------|----------|
|-------------------|--11---------|-----------|-----------|----------|
|-------------------|-------------|-----------|-----------|----------|
|-------------------|-------------|-----------|-----------|----------|
|-------------------|-------------|-----------|-----------|----------|#/4t2##/4t1#

#5t1##5t2#|--12b-12-----------|-12-----12---|--------------|-------------------|
|----------12b------|----12b------|-12bh10----12-|--9-10----9-10-12--|
|-------------------|-------------|--------11----|-------12----------|
|-------------------|-------------|--------------|-------------------|
|-------------------|-------------|--------------|-------------------|
|-------------------|-------------|--------------|-------------------|#/5t2##/5t1#

#6t1##6t2#|--9-----12---------|--------------12----|-12------|
|----12b----12b--10-|--12-10-12/14----12-|----15b--|
|-------------------|--------------------|---------|
|-------------------|--------------------|---------|
|-------------------|--------------------|---------|
|-------------------|--------------------|---------|#/6t2##/6t1#

#7t1##7t2#|-------------------------------|-----17---------------------------|
|--14h15h14----14-----14-15-14--|--15----15-14-15h17h14----14------|
|-----------16----16------------|-----------------------16---------|
|-------------------------------|----------------------------------|
|-------------------------------|----------------------------------|
|-------------------------------|----------------------------------|#/7t2##/7t1#

#8t1##8t2#|---------------14-17-16-17-----|--14h17h14----14-----17--17-------|
|--12/14------------------------|-----------17----17b_______-------|
|---------16b-------------------|----------------------------------|
|-------------------------------|----------------------------------|
|-------------------------------|----------------------------------|
|-------------------------------|----------------------------------|#/8t2##/8t1#

#9t1##9t2#|----------------17-17----------|----------------------------------|
|--17-14-17---------------------|----------------------------------|
|------------16b_______---------|--16--14----14h16-14--------------|
|-------------------------------|---------16-----------------------|
|-------------------------------|----------------------------------|
|-------------------------------|----------------------------------|#/9t2##/9t1#

Deve-se afinar a guitarra meio tom a baixo, como em todas as músicas do guns 

F#m            F#m/F           F#m/E        F#m/Eb
     Tell everybody that I am sorry, truly sorry 
  D                E         A  
     For all the wrong I've done
F#m           F#m/F           F#m/E   F#m/Eb
     I never meant to hurt nobody, no no 
   D         E             A              Bm C#m 
     Lord I never want to do no wrong 



   D                              C#m
     And I have lied, and I have begged and I have cheated 
   Bm                      A          A7 
     And I know my ship, it won't be coming in 
   D                 C#m
     And as I lay me down to take my rest
          Bm                 D                G  A    (A A/G#)
    I can see that it's just dust in the wind 

    Take hold my hand, and hold it tighter, ever tighter 
    You must believe that I love you still 
    But my strength, it grows weaker, and weaker 
    And my body has lost its will 

    'Cause I have lied, and I have begged and I have cheated 
    And I know my ship, it won't be coming in 
    And as I lay me down to take my rest 
    I can see that it's just dust in the wind 

    Solo: Mesmos acordes dos versos

  F#m                D               
    Oh Lord, I have lost once again 
  C#     F#m/D [   Eb   E   F ]              F#m    (as notas entre colchetes indicam a mudança do baixo) 
    And there's no one to help me find my way home
F#m/F [E Eb ]  D  A          D                    A
    Lord   and    I, Lord I never want to hurt nobody 
        D          A                         Bm C#m
    And I, Lord I never want to do no wrong 

   D                              C#m      
    'Cause I have lied, and I have begged and I have cheated 
   Bm                      A          A7 
    And I know my ship, it won't be coming in 
   D                 C#m
    And as I lay me down to take my rest 
          Bm                 D                G  A     Final: Bm6b D G A 
    I can see that it's just dust in the wind
Composição: Mark KlingmanColaboração e revisão: Victor Menezes