busca

I Don't Care About You

Guns N' Roses

Tom: F#
afinação: (EBGDAE)

intro riff:
|-------------------------------|
|-------------------------------|
|---7-----2-----999999999-------|
|---7-----2-----999999999-------|
|---5-----0-----777777777-------|
|-------------------------------|(2x)

riff dos versos:
|-------------------------|
|-------------------------|
|-------------2-2-2-------|
|-------------0-0-0-------|
|-0--0--0--0--------------|
|-------------------------|(3x)

|----------------|
|----------------|
|----------------|
|----------------|
|--0--0--0--0----|
|----------------|(1x)

refrão:
|-------------------------------|
|-------------------------------|
|---7-----2-----999999999-------|
|---7-----2-----999999999-------|
|---5-----0-----777777777-------|
|-------------------------------|(2x)

tudo isso acima - (4x)

depois...
|-----------------------------|
|-----------------------------|
|---7----2----2~--------------|
|---7----2----2~--------------|
|---5----0----0~--------------|
|-----------------------------|

outro - guitarra solo:             
|-2-1-4-3-6-5-8-7-10-9-12-11-15-14-17-16----------------|
|-------------------------------------------------------|
|-------------------------------------------------------|
|-------------------------------------------------------|
|-------------------------------------------------------|
|-------------------------------------------------------|(1x)

outro - guitarra base:                    
|-------------------------------------------------------|
|-222--555--777--999--121212--141414--------------------|
|-222--555--777--999--121212--141414--------------------|
|-000--333--555--777--101010--121212--------------------|
|-------------------------------------------------------|
|-------------------------------------------------------|(1x)

Clipes