Iron Horse

Guns N' Roses

A
123
X02220
B
234
X24442
C
123
X32010
D
123
XX0232
Em
12
022000
Tom: G
(intro)

(guitar 1)
(riff 1)
#1t1##1t2#|---0------0------0------0--------0----0-----0-|-7---------9---12-----12-|
|-----0------3------0------3--2-----2--1---1---|-8----10----------10--13-|
|-----------------------------2--------0-0-----|-7-------9---9--------12-|
|-2------0------2------0------2----------------|----7--------------------|
|-2-------------2---------------0--------------|-------------------------|
|-0-------------0------------------------------|-------------------------|#/1t2##/1t1#

#2t1#(riff 2)
#2t2#|------------------------------------------------------------|
|------------------------------------------------------------|
|----------------------------------------------------------5-|
|------2-------------2-------------2-------2-----2---------5-|
|------0-0-0-0-0-0-0-0-0-0-0-0-0-0-0-0-0-0-3-0-0-3-0-0-0-0-3-|
|------------------------------------------------------------|#/2t2##/2t1#

(guitar 2)
(riff 2)
#3t1##3t2#|-------------------------|
|-------------------------|
|-7-9p7-------------------|
|-------------------------|
|-------------------------|
|-------------------------|#/3t2##/3t1#

(verso)

#4t1#(guitar 1)
#4t2#|---0-------3--------2------------|
|-----1-------5--------3--------2-|
|-0-------------4--2-----2---2----|
|---------2--------------------2--|
|-------3------------------0------|
|---------------------------------| [3x]#/4t2##/4t1#

#5t1##5t2#|-0-------0--------2-------0------|
|-1-------0--------3-------2------|
|-0-------0--------2-------2------|
|-2-------2--------0-------2------|
|-3-------2----------------0------|
|---------0-----------------------|#/5t2##/5t1#

(refrão)
(guitar 1)
#6t1##6t2#|-----8-------5--------10--------8-----------5---------8---5-|
|-------8---5---5---------10---8---8-----------5-------8-8-5-|
|---------7------------------9-------------------5-------7---|
|------------------------------------------------------------|
|---5----------------7-------------------------------7-------|
|-8---------------10-----------------5-3-5-3-------5---------|#/6t2##/6t1#

C           Em              D              A
The eggs is hatched, in the chicken of the man,
C               Em           D      A
The man eat the eggs and the chicken too,
C             Em       D          A
The finish of cicle is marked and maked,
C                Em     D    B  B
The cicle of the egg is did too.

C           D          A           A
The life is dead, like we and like that,
C          D        A       A
And if you want not this, try to miss.
C      D       A     A        B B B B B B B B B B B B B B B B
try to Love a blame, and try to shame your pareeeeeeeeeeeeeeents.
Composição: Axl RoseColaboração e revisão: Renan