busca

Knockin On Heavens Door 2001 Solo

Guns N' Roses

Tom: G
G       D       Am      G       D       C
E|----------------------12-----10-8-7-8-----------12-14/15-15-14-10-10b(12)-|
B|--8h10-10/12-----8-------------------8---12/15----------------------------|
G|--------------------------------------------------------------------------|
D|--------------------------------------------------------------------------|
A|--------------------------------------------------------------------------|
E|--------------------------------------------------------------------------|

G       D       Am
E|--(12)r10-10-8-7-8----------------10---------------------------------|
B|-------------------8-----8-10b(12)---(12)r10~~~--8-10-8-10--10b(12)--|
G|-----------------------9---------------------------------------------|
D|---------------------------------------------------------------------|
A|---------------------------------------------------------------------|
E|---------------------------------------------------------------------|

G       D       C
E|-------------------------8-10-10b(12)~~~(12)r10--10-8-7-7-8----------|
B|--r10-10p8-8~~~~---10/12------------------------------------8~~~~~\--|
G|---------------------------------------------------------------------|
D|---------------------------------------------------------------------|
A|---------------------------------------------------------------------|
E|---------------------------------------------------------------------|

Clipes