Mr. Brownstone

Guns N' Roses

Principal
A#
234
X13331
C#
234
X46664
D#
234
X65343
F#
234
244322
G#
234
431114
Tom: G
Guitar 1(izzy stradlin ):
                                           
D#||-------------------|-------------------||
A#||-------------------|-------------------||
F#||*------------------|------------------*||
C#||*------------------|------------------*||
G#||-------------------|-------------------||
D#||-------------------|-------------------||


                                                                         
#1t1##1t2#---------------------------------------|--------------------------------|
---------------------------------------|--------------------------------|
---------------------------------------|--------------------------------|
---------------------------------------|--------------------------------|
---------------------------------------|--------------------------------|
--12-12/11/10-10/9/8-8/7-7/6-6/5-5/3/1/|--0-0/1-1-1/2-2/3/5/6/7/-12/-0--|#/1t2##/1t1#


                                                               
#2t1##2t2#-------------------------------|------------------------------|
-------------------------------|--3h2h0-----------------------|
--------------------------2----|--------2h0-------------------|
--------------------------2----|-------------2h0---------2----|
--------2h0-------2-2-----0----|-----------------2h0-----2----|
--0-3h4-----0-3h4-0-0-3h4------|---------------------3h4-0----|#/2t2##/2t1#


                                                       
#3t1##3t2#-------------------------------|----------------------|
-------------------------------|--3-------------------|
--------------------------2----|--2---2---------------|
--------------------------2----|--0---2---------------|
--------2h0-------2-2-----0----|------0---2-----------|
--0-3h4-----0-3h4-0-0-3h4------|---------------3~-----|#/3t2##/3t1#


                                                                 
#4t1##4t2#|--------------------------------|------------------------------|
|--------------------------------|--3h2h0-----------------------|
|*--------------------------2----|--------2h0-------------------|
|*--------------------------2----|-------------2h0---------2----|
|---------2h0-------2-2-----0----|-----------------2h0-----2----|
|---0-3h4-----0-3h4-0-0-3h4------|---------------------3h4-0----|#/4t2##/4t1#


                                                       
#5t1##5t2#-------------------------------|----------------------|
-------------------------------|--3-------------------|
--------------------------2----|--2---2---------------|
--------------------------2----|--0---2---------------|
--------2h0-------2-2-----0----|------0---2-----------|
--0-3h4-----0-3h4-0-0-3h4------|---------------3~-----|#/5t2##/5t1#


                                                            
#6t1##6t2#------------------------------|----------------------------|
------------------------------|----------------------------|
------------------------------|----------------------------|
--------------------5---5h7---|--5h7--x-5--x-5~---5--------|
--5h7--x-5--x-7~--7---7-------|---------------------4-7~---|
------------------------------|----------------------------|#/6t2##/6t1#


                                                              
#7t1##7t2#------------------------------|-----------------------------||
------------------------------|-------------------8---5~----||
------------------------------|---------------------6------*||
--------------------5---5h7---|--5h7--x-5--x-5~------------*||
--5h7--x-5--x-7~--7---7-------|-----------------------------||
------------------------------|-----------------------------||#/7t2##/7t1#


                                                                  
#8t1##8t2#---------------------|---------------------|---------------------|
---------------------|--5---3---5----------|--7---5---7----------|
--4---2---4----------|--5---3---5----------|--7---5---7----------|
--5---3---5----------|--5---3---5----------|--7---5---7----------|
--5---3---5----------|--3---1---3----------|--5---3---5----------|
--3---1---3----------|---------------------|---------------------|#/8t2##/8t1#


                                                        
#9t1##9t2#--------------------------|----------------------------|
--------------------------|----------------------------|
----------------------7h9-|----------------------------|
------4---5----6--7h9-----|----------------------------|
--5-----------------------|--7--7--x-7---7--x-7----5h7-|
--------------------------|--0--0--x-0-----------7-----|#/9t2##/9t1#


                                                        
#10t1##10t2#---------------------------|---------------------------|
---------------------------|---------------------------|
---------------------------|---------------------------|
--------------5b-----------|--------------7b--5--------|
--7~-7--x-7-------7----5h7-|--7~-7--x-7------------5h7-|
---------------------7-----|---------------------7-----|#/10t2##/10t1#


                                                          
#11t1##11t2#--------------------------|------------------------------|
--------------------------|------------------------------|
--------------------------|------------------------------|
--------------------------|--9--x-7--x-9--x-x------------|
--7~---5~---4--2----0-----|--9--x-7--x-9--x-x-5-6-9--x-x-|
------------------3---3-0-|--7--x-5--x-7--x-x-x-x-7--x-x-|#/11t2##/11t1#


                                                              
#12t1##12t2#------------------------------|------------------------------|
------------------------------|------------------------------|
------------------------------|------------------------------|
--7--x-5--x-7--x-x------------|--9--x-7--x-9--x-x------------|
--7--x-5--x-7--x-x-3-4-7--x-x-|--9--x-7--x-9--x-x-5-6-9--x-x-|
--5--x-3--x-5--x-x-x-x-5--x-x-|--7--x-5--x-7--x-x-x-x-7--x-x-|#/12t2##/12t1#


                                                              
#13t1##13t2#------------------------------|------------------------------|
------------------------------|------------------------------|
------------------------------|------------------------------|
--7--x-5--x-7--x-x------------|--9--x-7--x-9--x-x------------|
--7--x-5--x-7--x-x-3-4-7--x-x-|--9--x-7--x-9--x-x-5-6-9--x-x-|
--5--x-3--x-5--x-x-x-x-5--x-x-|--7--x-5--x-7--x-x-x-x-7--x-x-|#/13t2##/13t1#


                                                              
#14t1##14t2#------------------------------|------------------------------|
------------------------------|------------------------------|
------------------------------|------------------------------|
--7--x-5--x-7--x-x------------|--9--x-7--x-9--x-x------------|
--7--x-5--x-7--x-x-3-4-7--x-x-|--9--x-7--x-9--x-x-5-6-9--x-x-|
--5--x-3--x-5--x-x-x-x-5--x-x-|--7--x-5--x-7--x-x-x-x-7--x-x-|#/14t2##/14t1#


                                                                     
#15t1##15t2#------------------------|---------------------|---------------------|
------------------------|---------------------|--5---3---5----------|
------------------------|--4---2---4----------|--5---3---5----------|
--7---5---7-------------|--5---3---5----------|--5---3---5----------|
--7---5---7----0--3h0---|--5---3---5----------|--3---1---3----------|
--5---3---5-------------|--3---1---3----------|---------------------|#/15t2##/15t1#


                                                                              
#16t1##16t2#---------------------|--------------------------|----------------------------|
--7---5---7----------|--------------------------|----------------------------|
--7---5---7----------|----------------------7h9-|----------------------------|
--7---5---7----------|------4---5----6--7h9-----|----------------------------|
--5---3---5----------|--5-----------------------|--7--7--x-7---7--x-7----5h7-|
---------------------|--------------------------|--0--0--x-0-----------7-----|#/16t2##/16t1#


                                                        
#17t1##17t2#---------------------------|---------------------------|
---------------------------|---------------------------|
---------------------------|---------------------------|
--------------5b-----------|--------------7b--5--------|
--7~-7--x-7-------7----5h7-|--7~-7--x-7------------5h7-|
---------------------7-----|---------------------7-----|#/17t2##/17t1#


                                                        
#18t1##18t2#--------------------------|----------------------------|
--------------------------|----------------------------|
--------------------------|-----------------4--2h3-----|
--------------------------|------4----2-----4--3---4-2-|
--7~---5~---4--2----0-----|---------4-----4-2----------|
------------------3---3-0-|--2-------------------------|#/18t2##/18t1#


                                                          
#19t1##19t2#----------------------------|----------------------------|
----------------------------|----------------------------|
-----------------2--0h1-----|-----------------4--2h3-----|
------2----0-----2--0---2-0-|------4----2-----4--3---4-2-|
---------2-----2-0----------|---------4-----4-2----------|
--0-------------------------|--2-------------------------|#/19t2##/19t1#


                                                          
#20t1##20t2#----------------------------|----------------------------|
----------------------------|----------------------------|
-----------------2--0h1-----|-----------------4--2h3-----|
------2----0-----2--0---2-0-|------4----2-----4--3---4-2-|
---------2-----2-0----------|---------4-----4-2----------|
--0-------------------------|--2-------------------------|#/20t2##/20t1#


                                                                                
#21t1##21t2#----------------------------|----------------------------|---------------------|
----------------------------|----------------------------|---------------------|
-----------------2--0h1-----|-----------------4--2h3-----|--9---7---9----------|
------2----0-----2--0---2-0-|------4----2-----4------4---|--9---7---9----------|
---------2-----2-0----------|---------4-----4-2----------|--7---5---7----------|
--0-------------------------|--2-------------------------|---------------------|#/21t2##/21t1#


                                                                  
#22t1##22t2#---------------------|---------------------|---------------------|
---------------------|--5---3---5----------|--7---5---7----------|
--4---2---4----------|--5---3---5----------|--7---5---7----------|
--5---3---5----------|--5---3---5----------|--7---5---7----------|
--5---3---5----------|--3---1---3----------|--5---3---5----------|
--3---1---3----------|---------------------|---------------------|#/22t2##/22t1#


                                                                           
#23t1##23t2#-----------------------|------------------|-------------------------------|
--7---6---4----3--3----|------------------|-------------------------------|
--7---6---4----2--0----|------------------|--------------------------2----|
--7---6---4----0--0----|------------------|--------------------------2----|
--5---4---2----0--x----|------------------|--------2h0-------2-2-----0----|
------------------3----|------------------|--0-3h4-----0-3h4-0-0-3h4------|#/23t2##/23t1#


                                                               
#24t1##24t2#------------------------------|-------------------------------|
--3h2h0-----------------------|-------------------------------|
--------2h0-------------------|--------------------------2----|
-------------2h0---------2----|--------------------------2----|
-----------------2h0-----2----|--------2h0-------2-2-----0----|
---------------------3h4-0----|--0-3h4-----0-3h4-0-0-3h4------|#/24t2##/24t1#


                                                      
#25t1##25t2#----------------------|------------------------------|
--3-------------------|------------------------------|
--2---2---------------|------------------------------|
--0---2---------------|--------------------5---5h7---|
------0---2-----------|--5h7--x-5--x-7~--7---7-------|
---------------3~-----|------------------------------|#/25t2##/25t1#


                                                            
#26t1##26t2#----------------------------|------------------------------|
----------------------------|------------------------------|
----------------------------|------------------------------|
--5h7--x-5--x-5~---5--------|--------------------5---5h7---|
---------------------4-7~---|--5h7--x-5--x-7~--7---7-------|
----------------------------|------------------------------|#/26t2##/26t1#


                                                            
#27t1##27t2#----------------------------|------------------------------|
-------------------8---5~---|------------------------------|
---------------------6------|------------------------------|
--5h7--x-5--x-5~------------|--9--x-7--x-9--x-x------------|
----------------------------|--9--x-7--x-9--x-x-5-6-9--x-x-|
----------------------------|--7--x-5--x-7--x-x-x-x-7--x-x-|#/27t2##/27t1#


                                                              
#28t1##28t2#------------------------------|------------------------------|
------------------------------|------------------------------|
------------------------------|------------------------------|
--7--x-5--x-7--x-x------------|--9--x-7--x-9--x-x------------|
--7--x-5--x-7--x-x-3-4-7--x-x-|--9--x-7--x-9--x-x-5-6-9--x-x-|
--5--x-3--x-5--x-x-x-x-5--x-x-|--7--x-5--x-7--x-x-x-x-7--x-x-|#/28t2##/28t1#


                                                              
#29t1##29t2#------------------------------|------------------------------|
------------------------------|------------------------------|
------------------------------|------------------------------|
--7--x-5--x-7--x-x------------|--9--x-7--x-9--x-x------------|
--7--x-5--x-7--x-x-3-4-7--x-x-|--9--x-7--x-9--x-x-5-6-9--x-x-|
--5--x-3--x-5--x-x-x-x-5--x-x-|--7--x-5--x-7--x-x-x-x-7--x-x-|#/29t2##/29t1#


                                                              
#30t1##30t2#------------------------------|------------------------------|
------------------------------|------------------------------|
------------------------------|------------------------------|
--7--x-5--x-7--x-x------------|--9--x-7--x-9--x-x------------|
--7--x-5--x-7--x-x-3-4-7--x-x-|--9--x-7--x-9--x-x-5-6-9--x-x-|
--5--x-3--x-5--x-x-x-x-5--x-x-|--7--x-5--x-7--x-x-x-x-7--x-x-|#/30t2##/30t1#


                                                                     
#31t1##31t2#------------------------|---------------------|---------------------|
------------------------|---------------------|--5---3---5----------|
------------------------|--4---2---4----------|--5---3---5----------|
--7---5---7-------------|--5---3---5----------|--5---3---5----------|
--7---5---7----0--3h0---|--5---3---5----------|--3---1---3----------|
--5---3---5-------------|--3---1---3----------|---------------------|#/31t2##/31t1#


                                                                              
#32t1##32t2#---------------------|--------------------------|----------------------------|
--7---5---7----------|--------------------------|----------------------------|
--7---5---7----------|----------------------7h9-|----------------------------|
--7---5---7----------|------4---5----6--7h9-----|----------------------------|
--5---3---5----------|--5-----------------------|--7--7--x-7---7--x-7----5h7-|
---------------------|--------------------------|--0--0--x-0-----------7-----|#/32t2##/32t1#


                                                        
#33t1##33t2#---------------------------|---------------------------|
---------------------------|---------------------------|
---------------------------|---------------------------|
--------------5b-----------|--------------7b--5--------|
--7~-7--x-7-------7----5h7-|--7~-7--x-7------------5h7-|
---------------------7-----|---------------------7-----|#/33t2##/33t1#


                                                           
#34t1##34t2#--------------------------|-------------------------------|
--------------------------|-------------------------------|
--------------------------|--------------------------2----|
--------------------------|--------------------------2----|
--7~---5~---4--2----0-----|--------2h0-------2-2-----0----|
------------------3---3-0-|--0-3h4-----0-3h4-0-0-3h4------|#/34t2##/34t1#


                                                               
#35t1##35t2#------------------------------|-------------------------------|
--3h2h0-----------------------|-------------------------------|
--------2h0-------------------|--------------------------2----|
-------------2h0---------2----|--------------------------2----|
-----------------2h0-----2----|--------2h0-------2-2-----0----|
---------------------3h4-0----|--0-3h4-----0-3h4-0-0-3h4------|#/35t2##/35t1#


                                                          
#36t1##36t2#----------------------|----------------------------------|
--3-------------------|----------------------------------|
--2---2---------------|--------4---------------4---------|
--0---2---------------|----5-6---7---5-6---5-6---7---5-6-|
------0---2-----------|--7---------7-----7---------7-----|
---------------3~-----|----------------------------------|#/36t2##/36t1#


                                                                
#37t1##37t2#------------------------------|--------------------------------|
------------------------------|--3h2h0----------3h2h0----------|
--------4---------------------|--------2~-0-----------2~-0-----|
----5-6---7---5-6----5-6-7----|-------------2h0------------2h0-|
--7---------7-----7-----------|--------------------------------|
------------------------------|--------------------------------|#/37t2##/37t1#


                                                                    
#38t1##38t2#-----------------------------|------------------|------------------|
--3h2h0----------------------|------------------|------------------|
--------2~-0-----------------|------------------|------------------|
-------------2h0--------2----|------------------|------------------|
-----------------2h0----2----|------------------|------------------|
---------------------3b-0----|------------------|------------------|#/38t2##/38t1#


                    
#39t1##39t2#------------------||
------------------||
------------------||
------------------||
------------------||
------------------||#/39t2##/39t1#


guitar 2(slash):


D#||---------------------------------|---------------------------------||
A#||---------------------------------|---------------------------------||
F#||*--------------------------------|--------------------------------*||
C#||*--x-x-x-x-x-x-x-x-x-x-x--x--x-x-|--x-x-x-x-x-x-x-x-x-x-x--x--x-x-*||
G#||---x-x-x-x-x-x-x-x-x-x-x--x--x-x-|--x-x-x-x-x-x-x-x-x-x-x--x--x-x--||
D#||---x-x-x-x-x-x-x-x-x-x-x--x--x-x-|--x-x-x-x-x-x-x-x-x-x-x--x--x-x--||


                                                                  
#40t1##40t2#--------------------------------|--------------------------------|
--------------------------------|--------------------------------|
--------------------------------|--------------------------------|
--x-x-x-x-x-x-x-x-x-x-x--x--x-x-|--x-x-x-x-x-x-x-x-x-x-x--x--x-x-|
--x-x-x-x-x-x-x-x-x-x-x--x--x-x-|--x-x-x-x-x-x-x-x-x-x-x--x--x-x-|
--x-x-x-x-x-x-x-x-x-x-x--x--x-x-|--x-x-x-x-x-x-x-x-x-x-x--x--x-x-|#/40t2##/40t1#


                                                                            
#41t1##41t2#------------------|------------------|------------------|------------------|
------------------|------------------|------------------|------------------|
------------------|------------------|------------------|------------------|
------------------|------------------|------------------|------------------|
------------------|------------------|------------------|------------------|
------------------|------------------|------------------|------------------|#/41t2##/41t1#


                                                          
#42t1##42t2#|-------------------------------|---------------------0--|
|-------------------------------|---------------------0--|
|*-------------------------2----|--7---6---4-------------|
|*--------x----------------2----|--7---6---4-------------|
|---x-x-x-2h0-x-x-x-x--x-x-0----|--5---4---2-------x-----|
|---0-3-4-----0-3-4-0--3-4------|---------------3b-0-----|#/42t2##/42t1#


                                                        
#43t1##43t2#------------------------------|------------------------|
------------------------------|------------------------|
-------------------------2----|--7---6---4-------------|
--------x----------------2----|--7---6---4-------2-----|
--x-x-x-2h0-x-x-x-x--x-x-0----|--5---4---2---------5b--|
--0-3-4-----0-3-4-0--3-4------|---------------3b-------|#/43t2##/43t1#


                                                            
#44t1##44t2#------------------------------|----------------------------|
------------------------------|----------------------------|
------------------------------|----------------------------|
--------------------5---5h7---|--5h7--x-5--x-5~---5--------|
--5h7--x-5--x-7~--7---7-------|---------------------4-7~---|
------------------------------|----------------------------|#/44t2##/44t1#


                                                              
#45t1##45t2#------------------------------|-----------------------------||
------------------------------|-------------------8---5~----||
------------------------------|---------------------6------*||
--------------------5---5h7---|--5h7--x-5--x-5~------------*||
--5h7--x-5--x-7~--7---7-------|-----------------------------||
------------------------------|-----------------------------||#/45t2##/45t1#


                                                                  
#46t1##46t2#---------------------|---------------------|---------------------|
---------------------|---------------------|---------------------|
---------------------|---------------------|---------------------|
---------------------|--5---3---5----------|--7---5---7----------|
--5---3---5----------|--3---1---3----------|--5---3---5----------|
--3---1---3----------|---------------------|---------------------|#/46t2##/46t1#


                                                        
#47t1##47t2#--------------------------|----------------------------|
--------------------------|----------------------------|
----------------------7h9-|----------------------------|
------4---5----6--7h9-----|----------------------------|
--5-----------------------|--7--7--x-7---7--x-7----5h7-|
--------------------------|--0--0--x-0-----------7-----|#/47t2##/47t1#


                                                        
#48t1##48t2#---------------------------|---------------------------|
---------------------------|---------------------------|
---------------------------|---------------------------|
--------------5b-----------|--------------7b--5--------|
--7~-7--x-7-------7----5h7-|--7~-7--x-7------------5h7-|
---------------------7-----|---------------------7-----|#/48t2##/48t1#


                                                          
#49t1##49t2#--------------------------|------------------------------|
--------------------------|------------------------------|
--------------------------|------------------------------|
--------------------------|--9--x-7--x-9--x-x------------|
--7~---5~---4--2----0-----|--9--x-7--x-9--x-x-5-6-9--x-x-|
------------------3---3-0-|--7--x-5--x-7--x-x-x-x-7--x-x-|#/49t2##/49t1#


                                                              
#50t1##50t2#------------------------------|------------------------------|
------------------------------|------------------------------|
------------------------------|------------------------------|
--7--x-5--x-7--x-x------------|--9--x-7--x-9--x-x------------|
--7--x-5--x-7--x-x-3-4-7--x-x-|--9--x-7--x-9--x-x-5-6-9--x-x-|
--5--x-3--x-5--x-x-x-x-5--x-x-|--7--x-5--x-7--x-x-x-x-7--x-x-|#/50t2##/50t1#


                                                              
#51t1##51t2#------------------------------|------------------------------|
------------------------------|------------------------------|
------------------------------|------------------------------|
--7--x-5--x-7--x-x------------|--9--x-7--x-9--x-x------------|
--7--x-5--x-7--x-x-3-4-7--x-x-|--9--x-7--x-9--x-x-5-6-9--x-x-|
--5--x-3--x-5--x-x-x-x-5--x-x-|--7--x-5--x-7--x-x-x-x-7--x-x-|#/51t2##/51t1#


                                                              
#52t1##52t2#------------------------------|------------------------------|
------------------------------|------------------------------|
------------------------------|------------------------------|
--7--x-5--x-7--x-x------------|--9--x-7--x-9--x-x------------|
--7--x-5--x-7--x-x-3-4-7--x-x-|--9--x-7--x-9--x-x-5-6-9--x-x-|
--5--x-3--x-5--x-x-x-x-5--x-x-|--7--x-5--x-7--x-x-x-x-7--x-x-|#/52t2##/52t1#


                                                                     
#53t1##53t2#------------------------|---------------------|---------------------|
------------------------|---------------------|---------------------|
------------------------|---------------------|---------------------|
--7---5---7-------------|---------------------|--5---3---5----------|
--7---5---7----0--3h0---|--5---3---5----------|--3---1---3----------|
--5---3---5-------------|--3---1---3----------|---------------------|#/53t2##/53t1#


                                                                              
#54t1##54t2#---------------------|--------------------------|----------------------------|
---------------------|--------------------------|----------------------------|
---------------------|----------------------7h9-|----------------------------|
--7---5---7----------|------4---5----6--7h9-----|----------------------------|
--5---3---5----------|--5-----------------------|--7--7--x-7---7--x-7----5h7-|
---------------------|--------------------------|--0--0--x-0-----------7-----|#/54t2##/54t1#


                                                        
#55t1##55t2#---------------------------|---------------------------|
---------------------------|---------------------------|
---------------------------|---------------------------|
--------------5b-----------|--------------7b--5--------|
--7~-7--x-7-------7----5h7-|--7~-7--x-7------------5h7-|
---------------------7-----|---------------------7-----|#/55t2##/55t1#


                                                        
#56t1##56t2#--------------------------|----------------------------|
--------------------------|----------------------------|
--------------------------|-----------------4--2h3-----|
--------------------------|------4----2-----4--3---4-2-|
--7~---5~---4--2----0-----|---------4-----4-2----------|
------------------3---3-0-|--2-------------------------|#/56t2##/56t1#


                                                          
#57t1##57t2#----------------------------|----------------------------|
----------------------------|----------------------------|
-----------------2--0h1-----|-----------------4--2h3-----|
------2----0-----2--0---2-0-|------4----2-----4--3---4-2-|
---------2-----2-0----------|---------4-----4-2----------|
--0-------------------------|--2-------------------------|#/57t2##/57t1#


                                                          
#58t1##58t2#----------------------------|----------------------------|
----------------------------|----------------------------|
-----------------2--0h1-----|-----------------4--2h3-----|
------2----0-----2--0---2-0-|------4----2-----4--3---4-2-|
---------2-----2-0----------|---------4-----4-2----------|
--0-------------------------|--2-------------------------|#/58t2##/58t1#


                                                                                
#59t1##59t2#----------------------------|----------------------------|---------------------|
----------------------------|----------------------------|---------------------|
-----------------2--0h1-----|-----------------4--2h3-----|--9---7---9----------|
------2----0-----2--0---2-0-|------4----2-----4------4---|--9---7---9----------|
---------2-----2-0----------|---------4-----4-2----------|--7---5---7----------|
--0-------------------------|--2-------------------------|---------------------|#/59t2##/59t1#


                                                                  
#60t1##60t2#---------------------|---------------------|---------------------|
---------------------|--5---3---5----------|--7---5---7----------|
--4---2---4----------|--5---3---5----------|--7---5---7----------|
--5---3---5----------|--5---3---5----------|--7---5---7----------|
--5---3---5----------|--3---1---3----------|--5---3---5----------|
--3---1---3----------|---------------------|---------------------|#/60t2##/60t1#


                                                     
#61t1##61t2#-----------------------|----------------------------|
--7---6---4----3--3----|----------------------------|
--7---6---4----2--0----|----------------------------|
--7---6---4----0--0----|--x-x-x-x--x----x-x-x-------|
--5---4---2----0--x----|--x-x-x-x--x--x-x-x-x--5/---|
------------------3----|--x-x-x-x--x--x-x-x-x--3/---|#/61t2##/61t1#


                                                        
#62t1##62t2#------------------------------|---------------------0--|
------------------------------|---------------------0--|
-------------------------2----|--7---6---4-------------|
--------x----------------2----|--7---6---4-------------|
--x-x-x-2h0-x-x-x-x--x-x-0----|--5---4---2-------x-----|
--0-3-4-----0-3-4-0--3-4------|---------------3b-0-----|#/62t2##/62t1#


                                                        
#63t1##63t2#------------------------------|------------------------|
------------------------------|------------------------|
-------------------------2----|--7---6---4-------------|
--------x----------------2----|--7---6---4-------2-----|
--x-x-x-2h0-x-x-x-x--x-x-0----|--5---4---2---------5b--|
--0-3-4-----0-3-4-0--3-4------|---------------3b-------|#/63t2##/63t1#


                                                            
#64t1##64t2#------------------------------|----------------------------|
------------------------------|----------------------------|
------------------------------|----------------------------|
--------------------5---5h7---|--5h7--x-5--x-5~---5--------|
--5h7--x-5--x-7~--7---7-------|---------------------4-7~---|
------------------------------|----------------------------|#/64t2##/64t1#


                                                            
#65t1##65t2#------------------------------|----------------------------|
------------------------------|-------------------8---5~---|
------------------------------|---------------------6------|
--------------------5---5h7---|--5h7--x-5--x-5~------------|
--5h7--x-5--x-7~--7---7-------|----------------------------|
------------------------------|----------------------------|#/65t2##/65t1#


                                                              
#66t1##66t2#------------------------------|------------------------------|
------------------------------|------------------------------|
------------------------------|------------------------------|
--9--x-7--x-9--x-x------------|--7--x-5--x-7--x-x------------|
--9--x-7--x-9--x-x-5-6-9--x-x-|--7--x-5--x-7--x-x-3-4-7--x-x-|
--7--x-5--x-7--x-x-x-x-7--x-x-|--5--x-3--x-5--x-x-x-x-5--x-x-|#/66t2##/66t1#


                                                              
#67t1##67t2#------------------------------|------------------------------|
------------------------------|------------------------------|
------------------------------|------------------------------|
--9--x-7--x-9--x-x------------|--7--x-5--x-7--x-x------------|
--9--x-7--x-9--x-x-5-6-9--x-x-|--7--x-5--x-7--x-x-3-4-7--x-x-|
--7--x-5--x-7--x-x-x-x-7--x-x-|--5--x-3--x-5--x-x-x-x-5--x-x-|#/67t2##/67t1#


                                                              
#68t1##68t2#------------------------------|------------------------------|
------------------------------|------------------------------|
------------------------------|------------------------------|
--9--x-7--x-9--x-x------------|--7--x-5--x-7--x-x------------|
--9--x-7--x-9--x-x-5-6-9--x-x-|--7--x-5--x-7--x-x-3-4-7--x-x-|
--7--x-5--x-7--x-x-x-x-7--x-x-|--5--x-3--x-5--x-x-x-x-5--x-x-|#/68t2##/68t1#


                                                                              
#69t1##69t2#------------------------------|------------------------|---------------------|
------------------------------|------------------------|---------------------|
------------------------------|------------------------|---------------------|
--9--x-7--x-9--x-x------------|--7---5---7-------------|---------------------|
--9--x-7--x-9--x-x-5-6-9--x-x-|--7---5---7----0--3h0---|--5---3---5----------|
--7--x-5--x-7--x-x-x-x-7--x-x-|--5---3---5-------------|--3---1---3----------|#/69t2##/69t1#


                                                                       
#70t1##70t2#---------------------|---------------------|--------------------------|
---------------------|---------------------|--------------------------|
---------------------|---------------------|----------------------7h9-|
--5---3---5----------|--7---5---7----------|------4---5----6--7h9-----|
--3---1---3----------|--5---3---5----------|--5-----------------------|
---------------------|---------------------|--------------------------|#/70t2##/70t1#


                                                         
#71t1##71t2#----------------------------|---------------------------|
----------------------------|---------------------------|
----------------------------|---------------------------|
----------------------------|--------------5b-----------|
--7--7--x-7---7--x-7----5h7-|--7~-7--x-7-------7----5h7-|
--0--0--x-0-----------7-----|---------------------7-----|#/71t2##/71t1#


                                                       
#72t1##72t2#---------------------------|--------------------------|
---------------------------|--------------------------|
---------------------------|--------------------------|
--------------7b--5--------|--------------------------|
--7~-7--x-7------------5h7-|--7~---5~---4--2----0-----|
---------------------7-----|------------------3---3-0-|#/72t2##/72t1#


                                                        
#73t1##73t2#------------------------------|---------------------0--|
------------------------------|---------------------0--|
-------------------------2----|--7---6---4-------------|
--------x----------------2----|--7---6---4-------------|
--x-x-x-2h0-x-x-x-x--x-x-0----|--5---4---2-------x-----|
--0-3-4-----0-3-4-0--3-4------|---------------3b-0-----|#/73t2##/73t1#


                                                        
#74t1##74t2#------------------------------|------------------------|
------------------------------|------------------------|
-------------------------2----|--7---6---4-------------|
--------x----------------2----|--7---6---4-------2-----|
--x-x-x-2h0-x-x-x-x--x-x-0----|--5---4---2---------5b--|
--0-3-4-----0-3-4-0--3-4------|---------------3b-------|#/74t2##/74t1#


                                                                  
#75t1##75t2#----------------------------------|------------------------------|
----------------------------------|------------------------------|
----------------------------------|-------------------------2----|
----------------------------------|-------------------------2----|
--------2-0-------------2-0-------|--------2-0--------------0----|
--0-3-4-----0-3-4-0-3-4-----0-3-4-|--0-3-4-----0-3-4-0--3-4------|#/75t2##/75t1#


                                                               
#76t1##76t2#--------------------------------|-----------------------------|
--3h2h0----------3h2h0----------|--3h2h0----------------------|
--------2~-0-----------2~-0-----|--------2~-0-----------------|
-------------2h0------------2h0-|-------------2h0--------2----|
--------------------------------|-----------------2h0----2----|
--------------------------------|---------------------3b-0----|#/76t2##/76t1#

solo with wah wah: 

                                                          
#77t1##77t2#------------------|------------------|------------------||
------------------|------------------|------------------||
------------------|------------------|------------------||
------------------|------------------|------------------||
------------------|------------------|------------------||
------------------|------------------|------------------||#/77t2##/77t1#




#78t1##78t2#------------------|--14-----------------------------|
------------------|--17b--17--x-16r---14----14------|
------------------|----------------------16----16~--|
------------------|---------------------------------|
------------------|---------------------------------|
------------------|---------------------------------|#/78t2##/78t1#


                                                       
#79t1##79t2#------------------------------------------------------|
------------------------------------------------------|
--16-16--16r-14-16-16--16r-14-16-16--16r-14-14~-------|
------------------------------------------------14-12-|
------------------------------------------------------|
------------------------------------------------------|#/79t2##/79t1#


                                         
#80t1##80t2#----------------------------------------|
--17b--17--x-16r---14----14h17h14----14-|
----------------------17----------17----|
----------------------------------------|
----------------------------------------|
----------------------------------------|#/80t2##/80t1#


                                                                            
#81t1##81t2#----------------------------------------------|--------------------14--16--|
-----14---------------------------------------|--------22r---22~-----------|
--16b---17h16h14-16-16r-14----14----14b-16b---|----------------------------|
---------------------------16----16-----------|----------------------------|
----------------------------------------------|----------------------------|
----------------------------------------------|----------------------------|#/81t2##/81t1#


                                                                       
#82t1##82t2#--17-16h17h16h14----14-14----------------14-----------14h17h14--------|
-----------------17-------17-14h17h14-------17h14---------------------|
--------------------------------------16b---------16b----------16r-14-|
----------------------------------------------------------------------|
----------------------------------------------------------------------|
----------------------------------------------------------------------|#/82t2##/82t1#


                                                 
#83t1##83t2#------------------------------------------------|
-----14----14--------------14----14-------------|
--16----16b---14----14-16b----16----14b---14-16b|
-----------------16--------------------16-------|
------------------------------------------------|
------------------------------------------------|#/83t2##/83t1#


                                                                     
#84t1##84t2#--------------------------------|------3-----3------------------3-3/|
---14-------17r-14-17~----17/---|----3---3-6b--6-3------------3-----|
------16-14---------------------|--5b--------------5r-3-5-3-5b------|
--------------------------------|-----------------------------------|
--------------------------------|-----------------------------------|
--------------------------------|-----------------------------------|#/84t2##/84t1#


                                        
#85t1##85t2#-------8------8-11------------------8--|
-----8---8-11b-----8--------------8----|
--10b----------------10r-8-10-8h9------|
---------------------------------------|
---------------------------------------|
---------------------------------------|#/85t2##/85t1#


                                                                         
#86t1##86t2#-----10-13---------------------------------|--10---9----7---------15----|
--13b------10------------------------------|--13b--12b--10b---15--18b---|
--------------12-12r-10----12----10-10~----|----------------------------|
------------------------12----12-----------|----------------------------|
-------------------------------------------|----------------------------|
-------------------------------------------|----------------------------|#/86t2##/86t1#


                                                                              
#87t1##87t2#--------------------|------------------|------------------|------------------|
--------------------|------------------|------------------|------------------|
--------------------|------------------|------------------|------------------|
--------------------|------------------|------------------|------------------|
--------------------|------------------|------------------|------------------|
--------------12/---|------------------|------------------|------------------|#/87t2##/87t1#
Composição: Guns N' RosesColaboração e revisão: