Mr. Brownstone

Guns N' Roses

Principal
Tom: G
This means the same thing as 6b7d6 (I wanted to keep the solo on 80 cols)
If I made errors, let me know.

#1t1#Figure 1 (intro noise)
#1t2#e|---------------------------------|---------------------------------|
b|---------------------------------|---------------------------------|
g|---------------------------------|---------------------------------|
d|---------------------------------|---------------------------------|
a|-x-x-x-x-x-x-x-x-x-x-x---x---x-x-|-x-x-x-x-x-x-x-x-x-x-x---x---x-x-|
e|-x-x-x-x-x-x-x-x-x-x-x---x---x-x-|-x-x-x-x-x-x-x-x-x-x-x---x---x-x-|#/1t2##/1t1#
   1 e + a 2 e + a 3 e + a 4 e + a   1 e + a 2 e + a 3 e + a 4 e + a

#2t1##2t2#e|---------------------------------|---------------------------------|
b|---------------------------------|---------------------------------|
g|---------------------------------|---------------------------------|
d|---------------------------------|---------------------------------|
a|---------------------------------|---------------------------------|
e|-12\\\\\\\\\\\\\\\\\\\\\\\\\\\\0-|-0////////////////////////////12-|#/2t2##/2t1#
   1 e + a 2 e + a 3 e + a 4 e + a   1 e + a 2 e + a 3 e + a 4 e + a

#3t1#Figure 2 (Riff version 1)
#3t2#e|---------------------------------|---------------------------------|
b|---------------------------------|-3p2p0---------------------------|
g|-------------------------2-------|-------2p0-----------------------|
d|-------------------------2-------|-----------2p0---------2---------|
a|-------2p0---------------0-------|---------------2p0-----2---------|
e|-0-3-4-----0-3-4-0---3-4---------|-------------------3h4-0---------|#/3t2##/3t1#
   1 e + a 2 e + a 3 e + a 4 e + a   1 e + a 2 e + a 3 e + a 4 e + a

#4t1##4t2#e|---------------------------------|---------------------------------|
b|---------------------------------|-3-------------------------------|
g|-------------------------2-------|-2-----2-------------------------|
d|-------------------------2-------|-0-----2-----2-------------------|
a|-------2p0---------------0-------|-------0-----2-------b-----------|
e|-0-3-4-----0-3-4-0---3-4---------|-------------0-------3-----------|#/4t2##/4t1#
   1 e + a 2 e + a 3 e + a 4 e + a | 1 e + a 2 e + a 3 e + a 4 e + a

#5t1#Figure 2 (Riff version 2)
#5t2#e|---------------------------------|-----------------------------0---|
b|---------------------------------|-----------------------------0---|
g|-------------------------2-------|-7---x-6---x-4-------------------|
d|-------------------------2-------|-7---x-6---x-4-------------------|
a|-------2p0---------------0-------|-5---x-4---x-2-----b-------------|
e|-0-3-4-----0-3-4-0---3-4---------|-------------------3-----0-------|#/5t2##/5t1#
   1 e + a 2 e + a 3 e + a 4 e + a   1 e + a 2 e + a 3 e + a 4 e + a

#6t1##6t2#e|---------------------------------|---------------------------------|
b|---------------------------------|---------------------------------|
g|-------------------------2-------|-7---x-6---x-4-------------------|
d|-------------------------2-------|-7---x-6---x-4---------2---------|
a|-------2p0---------------0-------|-5---x-4---x-2-----------5-------|
e|-0-3-4-----0-3-4-0---3-4---------|-------------------3b4-----------|#/6t2##/6t1#
   1 e + a 2 e + a 3 e + a 4 e + a   1 e + a 2 e + a 3 e + a 4 e + a

#7t1#Figure 3 (Verse)
#7t2#e|---------------------------------|---------------------------------|
b|---------------------------------|---------------------------------|
g|---------------------------------|---------------------------------|
d|---------------------5---5h7-----|-5h7---5-----7-------5-----------|
a|-5h7---5-----7-----7---7---------|-----------------------4-4h7-----|
e|---------------------------------|---------------------------------|#/7t2##/7t1#
   1 e + a 2 e + a 3 e + a 4 e + a   1 e + a 2 e + a 3 e + a 4 e + a

#8t1##8t2#e|---------------------------------|---------------------------------|
b|---------------------------------|---------------------8---5-\-----|
g|---------------------------------|-----------------------6---------|
d|---------------------5---5h7-----|-5h7---5-----7-------------------|
a|-5h7---5-----7-----7---7---------|---------------------------------|
e|---------------------------------|---------------------------------|#/8t2##/8t1#
   1 e + a 2 e + a 3 e + a 4 e + a   1 e + a 2 e + a 3 e + a 4 e + a

#9t1#Figure 4 (Chorus)
#9t2#e|---------------------------------|---------------------------------|
b|---------------------------------|-7---x-5-------x-7---------------|
g|-4---x-2-------x-4---------------|-7---x-5-------x-7---------------|
d|-5---x-3-------x-5---------------|-7---x-5-------x-7---------------|
a|-5---x-3-------x-5---------------|-5---x-3-------x-5---------------|
e|-3---x-1-------x-3---------------|---------------------------------|#/9t2##/9t1#
   1 e + a 2 e + a 3 e + a 4 e + a   1 e + a 2 e + a 3 e + a 4 e + a

#10t1##10t2#e|---------------------------------|---------------------------------|
b|-9---x-7-------x-9---------------|---------------------------------|
g|-9---x-7-------x-9---------------|-----------------------------7h9-|
d|-9---x-7-------x-9---------------|-------4-------5-----6---7h9-----|
a|-7---x-5-------x-7---------------|-5-------------------------------|
e|---------------------------------|---------------------------------|#/10t2##/10t1#
   1 e + a 2 e + a 3 e + a 4 e + a   1 e + a 2 e + a 3 e + a 4 e + a

#11t1##11t2#e|---------------------------------|---------------------------------|
b|---------------------------------|---------------------------------|
g|---------------------------------|---------------------------------|
d|---------------------------------|-----------------5b6d5-----------|
a|-7-7-7---7-7---7---7-7-------5h7-|-7-7-7---7-7-----------7-----5h7-|
e|-0-0-0---0-0---0---0-0-----7-----|-0-0-0---0-0---------------7-----|#/11t2##/11t1#
   1 e + a 2 e + a 3 e + a 4 e + a   1 e + a 2 e + a 3 e + a 4 e + a

#12t1##12t2#e|---------------------------------|---------------------------------|
b|---------------------------------|---------------------------------|
g|---------------------------------|---------------------------------|
d|-----------------7b8d7-5---------|---------------------------------|
a|-7-7-7---7-7-----------------5h7-|-7-------5-------4---2-----0-----|
e|-0-0-0---0-7---------------7-----|-------------------------3---3-0-|#/12t2##/12t1#
   1 e + a 2 e + a 3 e + a 4 e + a   1 e + a 2 e + a 3 e + a 4 e + a

Figure 5 (Bridge)
e[---------------------------------|---------------------------------]3
b[---------------------------------|---------------------------------]3
g[---------------------------------|---------------------------------]3
d[-9---x-7---x-9---x-x-------------|-7---x-5---x-7---x-x-------------]3
a[-9---x-7---x-9---x-x-5-6-9---x-x-|-7---x-5---x-7---x-x-3-4-5---x-x-]3
e[-7---x-5---x-7---x-x-----7---x-x-|-5---x-3---x-5---x-x-----3---x-x-]3
   1 e + a 2 e + a 3 e + a 4 e + a   1 e + a 2 e + a 3 e + a 4 e + a

#13t1##13t2#e|---------------------------------|
b|---------------------------------|
g|---------------------------------|
d|-9---x-7---x-9-------------------|
a|-9---x-7---x-9-------------------|
e|-7---x-5---x-7-------------------|#/13t2##/13t1#
   1 e + a 2 e + a 3 e + a 4 e + a

Figure 6 Solo
e[---------------------------------|---------------------------------]3
b[---------------------------------|---------------------------------]3
g[---------------------4---2h3-----|---------------------2---0h1-----]3
d[-------4-----2-------4-------4-2-|-------2-----0-------2-------2-0-]3
a[-----------4-------4-2-----------|-----------2-------2-0-----------]3
e[-2-------------------------------|-0-------------------------------]3
   1 e + a 2 e + a 3 e + a 4 e + a   1 e + a 2 e + a 3 e + a 4 e + a

#14t1##14t2#e|---------------------------------|---------------------------------|
b|---------------------------------|---------------------------------|
g|---------------------4---2h3-----|---------------------------------|
d|-------4-----2-------4-------4---|-9---x-7-------x-9---------------|
a|-----------4-------4-2-----------|-9---x-7-------x-9---------------|
e|-2-------------------------------|-7---x-5-------x-7---------------|#/14t2##/14t1#
   1 e + a 2 e + a 3 e + a 4 e + a   1 e + a 2 e + a 3 e + a 4 e + a

#15t1##15t2#e|-----3---B-3-------------------3---|-----8---B-8-11-------------------8---|
b|-B-3---3-6---6-3-b-d-------B-3-----|-B-8---8-11----8--b-d-----------8-----|
g|-5---------------5 5p3-5p3-5-------|-10--------------10 10p8-10-8h9-------|
d|-----------------------------------|--------------------------------------|
a|-----------------------------------|--------------------------------------|
e|-----------------------------------|--------------------------------------|#/15t2##/15t1#
#16t1#   1 e + a 2 e + a 3   e + a 4 e + a   1 e + a 2 e + a 3     e +  a 4 e + a
#16t2#                   -t-                                 --t--#/16t2##/16t1#

#17t1##17t2#e|-B-10-13---------------------------------------|
b|-13-----10-------------------------------------|
g|----------12-(14)d12p10----12----10-10-10------|
d|------------------------12----12---------------|
a|-----------------------------------------------|
e|-----------------------------------------------|#/17t2##/17t1#
#18t1#   1 e  + a 2  e       +  a  3  e  +  a  4 e + a
#18t2#               ----t---#/18t2##/18t1#

#19t1##19t2#e|---------------------------------|---------------------------------|
b|---------------------------------|---------------------------------|
g|-7---x-6-----x-4-----------------|---------------------------------|
d|-7---x-6-----x-4-----------------|---------------------------------|
a|-5---x-4-----x-2---------b-------|-x-x-x-x---x---x-x-x-x-x---------|
e|-------------------------3-------|-x-x-x-x---x---x-x-x-x-x-15\-----|#/19t2##/19t1#
   1 e + a 2 e + a 3 e + a 4 e + a   1 e + a 2 e + a 3 e + a 4 e + a

#20t1#Figure 7(Outtro)
#20t2#e|---------------------------------|---------------------------------|
b|---------------------------------|---------------------------------|
g|-------4---------------4---------|-------4-------------------------|
d|---5-6---7---5-6---5-6---7---5-6-|---5-6---7---5-6-----5-6-7-------|
a|-7---------7-----7---------7-----|-7---------7-----7---------------|
e|---------------------------------|---------------------------------|#/20t2##/20t1#
   1 e + a 2 e + a 3 e + a 4 e + a   1 e + a 2 e + a 3 e + a 4 e + a

#21t1##21t2#e|---------------------------------|---------------------------------|
b|-3p2p0-----------3p2p0-----------|-3p2p0---------------------------|
g|-------2---0-----------2---0-----|-------2---0---------------------|
d|-------------2p0-------------2p0-|-------------2p0---------2-------|
a|---------------------------------|-----------------2p0-b---2-------|
e|---------------------------------|---------------------3---0-------|#/21t2##/21t1#
   1 e + a 2 e + a 3 e + a 4 e + a   1 e + a 2 e + a 3 e + a 4 e + a

#22t1##22t2#e|---------------------------------|
b|-0h2---0h3-----------------------|
g|---------------------------------|
d|---------------------------------|
a|---------------------------------|
e|---------------------------------|#/22t2##/22t1#
   1 e + a 2 e + a 3 e + a 4 e + a

 Intro, Figure 1, Figure 2
 Figure 3, Figure 2, Figure 3
 Figure 4
 Figure 5
 Figure 4
 Figure 6
 Figure 2, Figure 3
 Figure 4
 Figure 1, Figure 7
Composição: Guns N' RosesColaboração e revisão: Paulo Rocha