busca

Mr. Brownstone

Guns N' Roses

S   |------------o---|------------o---|------------o---|------------o---|
T   |o-oo-oo-oo-o--oo|o-oo-oo-oo-o--oo|o-oo-oo-oo-o--oo|o-oo-oo-oo-o--oo|
B   |0-----0----0----|0-----0----0----|0-----0----0----|0-----0----0----|
    (1 + 2 + 3 + 4 + |1 + 2 + 3 + 4 + |1 + 2 + 3 + 4 + |1 + 2 + 3 + 4 + )
C   |X---------------|X---------------|X---------------|X---------------|
S   |------------o---|------------f-f-|------------o---|------------o---|
T   |--oo-oo-oo-o--oo|--oo-oo-oo-o----|--ooooo-ooo---oo|--ooooo-ooo---oo|
B   |0-----0----0--0-|0-----0----0----|0-----0---0-----|0-----0---0-----|
    (1 + 2 + 3 + 4 + |1 + 2 + 3 + 4 + |1 + 2 + 3 + 4 + |1 + 2 + 3 + 4 + )
C   |X---------------|X--X--X---------|
S   |------------o---|------------f---|
T   |--ooooo-ooo---oo|----------------|
B   |0-----0---0-----|0--0--0---0-----|
    (1 + 2 + 3 + 4 + |1 + 2 + 3 + 4 + )
C   |X---------------|X-----X---------|X---------------|X--X--X---------|
R   |--x-x-x-x-x-x-x-|--x-x---x-x-x-x-|--x-x-x-x-x-x-x-|----------------|
S   |----o-------o---|----o-------o---|----o-------o---|------------f---|
B   |0-------0-0-----|0--0--0---0-----|0-------0-0-----|0--0--0---0-----|
    (1 + 2 + 3 + 4 + |1 + 2 + 3 + 4 + |1 + 2 + 3 + 4 + |1 + 2 + 3 + 4 + )
    1 verse:
C   |X---------------|----------------|----------------|----------------|
H   |-xxxxxxxxx--xxxx|xxxxxxxxxx--xxxx|xxxxxxxxxx--xxxx|xxxxxxxxxx------|
S   |----o-------o---|----o-------o---|----o-------o---|----o-------oooo|
B   |0--0--0---0-----|0--0--0---0-----|0--0--0---0-----|0--0--0---0-----|
Hf  |----------x-----|----------x-----|----------x-----|----------x-----|
    (1e+a2e+a3e+a4e+a|1 + 2 + 3 + 4 + |1 + 2 + 3 + 4 + |1 + 2 + 3 + 4 + )
C   |X---------------|X-----X---------|X---------------|X--X--X---------|
R   |--x-x-x-x-x-x-x-|--x-x---x-x-x-x-|--x-x-x-x-x-x-x-|----------------|
S   |----o-------o---|----o-------o---|----o-------o---|------------f---|
B   |0-------0-0-----|0--0--0---0-----|0-------0-0-----|0--0--0---0-----|
    (1 + 2 + 3 + 4 + |1 + 2 + 3 + 4 + |1 + 2 + 3 + 4 + |1 + 2 + 3 + 4 + )
    2 verse:
C   |X---------------|----------------|----------------|----------------|
H   |-xxxxxxxxx--xxxx|xxxxxxxxxx--xxxx|xxxxxxxxxx--xxxx|xxxxxxxxxx------|
S   |----o-------o---|----o-------o---|----o-------o---|----o-------oooo|
B   |0--0--0---0-----|0--0--0---0-----|0--0--0---0-----|0--0--0---0-----|
Hf  |----------x-----|----------x-----|----------x-----|----------x-----|
    (1e+a2e+a3e+a4e+a|1 + 2 + 3 + 4 + |1 + 2 + 3 + 4 + |1 + 2 + 3 + 4 + )
     Chorus:
C   |X---------------|X-----X---------|X---------------|X--X--X---------|
R   |--x-x-x-x-x-x-x-|--x-x---x-x-x-x-|--x-x-x-x-x-x-x-|----------------|
S   |----o-------o---|----o-------o---|----o-------o---|------------f-f-|
B   |0--0--0---0-----|0--0--0---0-----|0--0--0---0-----|0--0--0---0-----|
    (1 + 2 + 3 + 4 + |1 + 2 + 3 + 4 + |1 + 2 + 3 + 4 + |1 + 2 + 3 + 4 + )
C   |X---------------|----------------|----------------|X---X-----------|
Cow |----x---x---x---|x---x---x---x---|x---x---x---x---|----------------|
S   |----o-------o---|----o-------o---|----o-------o---|--------f-o-oooo|
B   |0-------0-------|0----0--0-------|0----0--0-------|0---0---0-------|
    (1 + 2 + 3 + 4 + |1 + 2 + 3 + 4 + |1 + 2 + 3 + 4 + |1 + 2 + 3 + 4 + )
H   |xxxxxxxxxx--xxxx|xxxxxxxxxx--xxxx|xxxxxxxxxx--xxxx|xxxxxxxxxx--xxxx|
S   |----o-------o---|----o-------o---|----o-------o---|----o-------o---|
B   |0--0--0---0-----|0--0--0---0-----|0--0--0---0-----|0--0--0---0-----|
Hf  |----------x-----|----------x-----|----------x-----|----------x-----|
    (1 + 2 + 3 + 4 + |1 + 2 + 3 + 4 + |1 + 2 + 3 + 4 + |1 + 2 + 3 + 4 + )
C   |----------------|----------------|----------------|X--X--X---------|
H   |xxxxxxxxxx--xxxx|xxxxxxxxxx--xxxx|xxxxxxxxxx--xxxx|----------------|
S   |----o-------o---|----o-------o---|----o-------o---|------------f---|
B   |0--0--0---0-----|0--0--0---0-----|0--0--0---0-----|0--0--0---0-----|
Hf  |----------x-----|----------x-----|----------x-----|----------------|
    (1 + 2 + 3 + 4 + |1 + 2 + 3 + 4 + |1 + 2 + 3 + 4 + |1 + 2 + 3 + 4 + )
 
    Chorus:
C   |X---------------|X-----X---------|X---------------|X--X--X---------|
R   |--x-x-x-x-x-x-x-|--x-x---x-x-x-x-|--x-x-x-x-x-x-x-|----------------|
S   |----o-------o---|----o-------o---|----o-------o---|------------f-f-|
B   |0--0--0---0-----|0--0--0---0-----|0--0--0---0-----|0--0--0---0-----|
    (1 + 2 + 3 + 4 + |1 + 2 + 3 + 4 + |1 + 2 + 3 + 4 + |1 + 2 + 3 + 4 + )
C   |X---------------|----------------|----------------|X---X-----------|
Cow |----x---x---x---|x---x---x---x---|x---x---x---x---|----------------|
S   |----o-------o---|----o-------o---|----o-------o---|--------f-o-oooo|
B   |0-------0-------|0----0--0-------|0----0--0-------|0---0---0-------|
    (1 + 2 + 3 + 4 + |1 + 2 + 3 + 4 + |1 + 2 + 3 + 4 + |1 + 2 + 3 + 4 + )
    Solo Guitar
H   |xxxxxxxxxx--xxxx|xxxxxxxxxx--xxxx|xxxxxxxxxx--xxxx|xxxxxxxxxx--xxxx|
S   |----o-------o---|----o-------o---|----o-------o---|----o-------o---|
B   |0--0--0---0-----|0--0--0---0-----|0--0--0---0-----|0--0--0---0-----|
Hf  |----------x-----|----------x-----|----------x-----|----------x-----|
    (1 + 2 + 3 + 4 + |1 + 2 + 3 + 4 + |1 + 2 + 3 + 4 + |1 + 2 + 3 + 4 + )
C   |----------------|----------------|----------------|X--X--X---------|
H   |xxxxxxxxxx--xxxx|xxxxxxxxxx--xxxx|xxxxxxxxxx--xxxx|----------------|
S   |----o-------o---|----o-------o---|----o-------o---|------------f---|
B   |0--0--0---0-----|0--0--0---0-----|0--0--0---0-----|0--0--0---0-----|
Hf  |----------x-----|----------x-----|----------x-----|----------------|
    (1 + 2 + 3 + 4 + |1 + 2 + 3 + 4 + |1 + 2 + 3 + 4 + |1 + 2 + 3 + 4 + )
C   |X---------------|X-----X---------|X---------------|X--X--X---------|
R   |--x-x-x-x-x-x-x-|--x-x---x-x-x-x-|--x-x-x-x-x-x-x-|----------------|
S   |----o-------o---|----o-------o---|----o-------o---|------------f---|
B   |0--0--0---0-----|0--0--0---0-----|0--0--0---0-----|0--0--0---0-----|
    (1 + 2 + 3 + 4 + |1 + 2 + 3 + 4 + |1 + 2 + 3 + 4 + |1 + 2 + 3 + 4 + )
S   |oooo-o-oo---f---|
B   |----------0-----|
    (1 + 2 + 3 + 4 + )
  
C   |X---------------|X-----X---------|X---------------|X--X--X---------|
R   |--x-x-x-x-x-x-x-|--x-x---x-x-x-x-|--x-x-x-x-x-x-x-|----------------|
S   |----o-------o---|----o-------o---|----o-------o---|------------f---|
B   |0-------0-0-----|0--0--0---0-----|0-------0-0-----|0--0--0---0-----|
    (1 + 2 + 3 + 4 + |1 + 2 + 3 + 4 + |1 + 2 + 3 + 4 + |1 + 2 + 3 + 4 + )
    3 verse:
C   |X---------------|----------------|----------------|----------------|
H   |-xxxxxxxxx--xxxx|xxxxxxxxxx--xxxx|xxxxxxxxxx--xxxx|xxxxxxxxxx------|
S   |----o-------o---|----o-------o---|----o-------o---|----o-------oooo|
B   |0--0--0---0-----|0--0--0---0-----|0--0--0---0-----|0--0--0---0-----|
Hf  |----------x-----|----------x-----|----------x-----|----------x-----|
    (1e+a2e+a3e+a4e+a|1 + 2 + 3 + 4 + |1 + 2 + 3 + 4 + |1 + 2 + 3 + 4 + )
H   |xxxxxxxxxx--xxxx|xxxxxxxxxx--xxxx|xxxxxxxxxx--xxxx|xxxxxxxxxx--xxxx|
S   |----o-------o---|----o-------o---|----o-------o---|----o-------o---|
B   |0--0--0---0-----|0--0--0---0-----|0--0--0---0-----|0--0--0---0-----|
Hf  |----------x-----|----------x-----|----------x-----|----------x-----|
    (1 + 2 + 3 + 4 + |1 + 2 + 3 + 4 + |1 + 2 + 3 + 4 + |1 + 2 + 3 + 4 + )
C   |----------------|----------------|----------------|X--X--X---------|
H   |xxxxxxxxxx--xxxx|xxxxxxxxxx--xxxx|xxxxxxxxxx--xxxx|----------------|
S   |----o-------o---|----o-------o---|----o-------o---|------------f---|
B   |0--0--0---0-----|0--0--0---0-----|0--0--0---0-----|0--0--0---0-----|
Hf  |----------x-----|----------x-----|----------x-----|----------------|
    (1 + 2 + 3 + 4 + |1 + 2 + 3 + 4 + |1 + 2 + 3 + 4 + |1 + 2 + 3 + 4 + )
     Chorus:
C   |X---------------|X-----X---------|X---------------|X--X--X---------|
R   |--x-x-x-x-x-x-x-|--x-x---x-x-x-x-|--x-x-x-x-x-x-x-|----------------|
S   |----o-------o---|----o-------o---|----o-------o---|------------f-f-|
B   |0--0--0---0-----|0--0--0---0-----|0--0--0---0-----|0--0--0---0-----|
    (1 + 2 + 3 + 4 + |1 + 2 + 3 + 4 + |1 + 2 + 3 + 4 + |1 + 2 + 3 + 4 + )
C   |X---------------|----------------|----------------|X---X-----------|
Cow |----x---x---x---|x---x---x---x---|x---x---x---x---|----------------|
S   |----o-------o---|----o-------o---|----o-------o---|--------f-o-oooo|
B   |0-------0-------|0----0--0-------|0----0--0-------|0---0---0-------|
    (1 + 2 + 3 + 4 + |1 + 2 + 3 + 4 + |1 + 2 + 3 + 4 + |1 + 2 + 3 + 4 + )
C   |X---------------|X-----X---------|X---------------|X--X--X---------|
R   |--x-x-x-x-x-x-x-|--x-x---x-x-x-x-|--x-x-x-x-x-x-x-|----------------|
S   |----o-------o---|----o-------o---|----o-------o---|------------f---|
B   |0-------0-0-----|0--0--0---0-----|0-------0-0-----|0--0--0---0-----|
    (1 + 2 + 3 + 4 + |1 + 2 + 3 + 4 + |1 + 2 + 3 + 4 + |1 + 2 + 3 + 4 + )
C   |X-------X-------|X---------X-X---|X-------X-------|X---------X-X---|
B   |0-------0-------|0---------0-0---|0-------0-------|0---------0-0---|
    (1 + 2 + 3 + 4 + |1 + 2 + 3 + 4 + |1 + 2 + 3 + 4 + |1 + 2 + 3 + 4 + )





Contribuição: guilherme (guilherme_hoff@hotmail.com)

Clipes

Cifra Club Pro

Aproveite o Cifra Club com benefícios exclusivos e sem anúncios
Cifra Club Pro
Aproveite o Cifra Club com benefícios exclusivos e sem anúncios